  0
SECTION
  2
HEADER
  9
$ACADVER
  1
AC1015
  9
$ACADMAINTVER
 70
     6
  9
$DWGCODEPAGE
  3
ANSI_1254
  9
$INSBASE
 10
0.0
 20
0.0
 30
0.0
  9
$EXTMIN
 10
0.0
 20
0.0
 30
0.0
  9
$EXTMAX
 10
279.4
 20
215.9
 30
0.0
  9
$LIMMIN
 10
0.0
 20
0.0
  9
$LIMMAX
 10
279.4
 20
215.9
  9
$ORTHOMODE
 70
     0
  9
$REGENMODE
 70
     1
  9
$FILLMODE
 70
     1
  9
$QTEXTMODE
 70
     0
  9
$MIRRTEXT
 70
     1
  9
$LTSCALE
 40
1.0
  9
$ATTMODE
 70
     1
  9
$TEXTSIZE
 40
3.5
  9
$TRACEWID
 40
1.0
  9
$TEXTSTYLE
  7
Standard
  9
$CLAYER
  8
0
  9
$CELTYPE
  6
ByLayer
  9
$CECOLOR
 62
   256
  9
$CELTSCALE
 40
1.0
  9
$DISPSILH
 70
     0
  9
$DIMSCALE
 40
1.0
  9
$DIMASZ
 40
3.5
  9
$DIMEXO
 40
1.0
  9
$DIMDLI
 40
3.75
  9
$DIMRND
 40
0.0
  9
$DIMDLE
 40
0.0
  9
$DIMEXE
 40
1.0
  9
$DIMTP
 40
0.0
  9
$DIMTM
 40
0.0
  9
$DIMTXT
 40
3.5
  9
$DIMCEN
 40
2.5
  9
$DIMTSZ
 40
0.0
  9
$DIMTOL
 70
     0
  9
$DIMLIM
 70
     0
  9
$DIMTIH
 70
     1
  9
$DIMTOH
 70
     1
  9
$DIMSE1
 70
     0
  9
$DIMSE2
 70
     0
  9
$DIMTAD
 70
     1
  9
$DIMZIN
 70
     0
  9
$DIMBLK
  1

  9
$DIMASO
 70
     1
  9
$DIMSHO
 70
     1
  9
$DIMPOST
  1

  9
$DIMAPOST
  1

  9
$DIMALT
 70
     0
  9
$DIMALTD
 70
     3
  9
$DIMALTF
 40
0.0393700787
  9
$DIMLFAC
 40
1.0
  9
$DIMTOFL
 70
     1
  9
$DIMTVP
 40
0.0
  9
$DIMTIX
 70
     0
  9
$DIMSOXD
 70
     0
  9
$DIMSAH
 70
     0
  9
$DIMBLK1
  1

  9
$DIMBLK2
  1

  9
$DIMSTYLE
  2
ISO-25
  9
$DIMCLRD
 70
     0
  9
$DIMCLRE
 70
     0
  9
$DIMCLRT
 70
     0
  9
$DIMTFAC
 40
1.0
  9
$DIMGAP
 40
1.524
  9
$DIMJUST
 70
     0
  9
$DIMSD1
 70
     0
  9
$DIMSD2
 70
     0
  9
$DIMTOLJ
 70
     0
  9
$DIMTZIN
 70
     0
  9
$DIMALTZ
 70
     0
  9
$DIMALTTZ
 70
     0
  9
$DIMUPT
 70
     0
  9
$DIMDEC
 70
     2
  9
$DIMTDEC
 70
     2
  9
$DIMALTU
 70
     2
  9
$DIMALTTD
 70
     3
  9
$DIMTXSTY
  7
Standard
  9
$DIMAUNIT
 70
     0
  9
$DIMADEC
 70
     2
  9
$DIMALTRND
 40
0.0
  9
$DIMAZIN
 70
     0
  9
$DIMDSEP
 70
    44
  9
$DIMATFIT
 70
     3
  9
$DIMFRAC
 70
     0
  9
$DIMLDRBLK
  1

  9
$DIMLUNIT
 70
     2
  9
$DIMLWD
 70
    -2
  9
$DIMLWE
 70
    -2
  9
$DIMTMOVE
 70
     0
  9
$LUNITS
 70
     2
  9
$LUPREC
 70
     2
  9
$SKETCHINC
 40
1.0
  9
$FILLETRAD
 40
10.0
  9
$AUNITS
 70
     0
  9
$AUPREC
 70
     2
  9
$MENU
  1
.
  9
$ELEVATION
 40
0.0
  9
$PELEVATION
 40
0.0
  9
$THICKNESS
 40
0.0
  9
$LIMCHECK
 70
     0
  9
$CHAMFERA
 40
0.0
  9
$CHAMFERB
 40
0.0
  9
$CHAMFERC
 40
0.0
  9
$CHAMFERD
 40
0.0
  9
$SKPOLY
 70
     0
  9
$TDCREATE
 40
2459741.601767431
  9
$TDUCREATE
 40
2459741.476767431
  9
$TDUPDATE
 40
2459741.601767616
  9
$TDUUPDATE
 40
2459741.476767616
  9
$TDINDWG
 40
0.0000000116
  9
$TDUSRTIMER
 40
0.0000000116
  9
$USRTIMER
 70
     1
  9
$ANGBASE
 50
0.0
  9
$ANGDIR
 70
     0
  9
$PDMODE
 70
     0
  9
$PDSIZE
 40
-1.0
  9
$PLINEWID
 40
0.0
  9
$SPLFRAME
 70
     0
  9
$SPLINETYPE
 70
     6
  9
$SPLINESEGS
 70
     8
  9
$HANDSEED
  5
128
  9
$SURFTAB1
 70
     6
  9
$SURFTAB2
 70
     6
  9
$SURFTYPE
 70
     6
  9
$SURFU
 70
     6
  9
$SURFV
 70
     6
  9
$UCSBASE
  2

  9
$UCSNAME
  2

  9
$UCSORG
 10
0.0
 20
0.0
 30
0.0
  9
$UCSXDIR
 10
1.0
 20
0.0
 30
0.0
  9
$UCSYDIR
 10
0.0
 20
1.0
 30
0.0
  9
$UCSORTHOREF
  2

  9
$UCSORTHOVIEW
 70
     0
  9
$UCSORGTOP
 10
0.0
 20
0.0
 30
0.0
  9
$UCSORGBOTTOM
 10
0.0
 20
0.0
 30
0.0
  9
$UCSORGLEFT
 10
0.0
 20
0.0
 30
0.0
  9
$UCSORGRIGHT
 10
0.0
 20
0.0
 30
0.0
  9
$UCSORGFRONT
 10
0.0
 20
0.0
 30
0.0
  9
$UCSORGBACK
 10
0.0
 20
0.0
 30
0.0
  9
$PUCSBASE
  2

  9
$PUCSNAME
  2

  9
$PUCSORG
 10
0.0
 20
0.0
 30
0.0
  9
$PUCSXDIR
 10
1.0
 20
0.0
 30
0.0
  9
$PUCSYDIR
 10
0.0
 20
1.0
 30
0.0
  9
$PUCSORTHOREF
  2

  9
$PUCSORTHOVIEW
 70
     0
  9
$PUCSORGTOP
 10
0.0
 20
0.0
 30
0.0
  9
$PUCSORGBOTTOM
 10
0.0
 20
0.0
 30
0.0
  9
$PUCSORGLEFT
 10
0.0
 20
0.0
 30
0.0
  9
$PUCSORGRIGHT
 10
0.0
 20
0.0
 30
0.0
  9
$PUCSORGFRONT
 10
0.0
 20
0.0
 30
0.0
  9
$PUCSORGBACK
 10
0.0
 20
0.0
 30
0.0
  9
$USERI1
 70
     0
  9
$USERI2
 70
     0
  9
$USERI3
 70
     0
  9
$USERI4
 70
     0
  9
$USERI5
 70
     0
  9
$USERR1
 40
0.0
  9
$USERR2
 40
0.0
  9
$USERR3
 40
0.0
  9
$USERR4
 40
0.0
  9
$USERR5
 40
0.0
  9
$WORLDVIEW
 70
     1
  9
$SHADEDGE
 70
     3
  9
$SHADEDIF
 70
    70
  9
$TILEMODE
 70
     1
  9
$MAXACTVP
 70
    64
  9
$PINSBASE
 10
0.0
 20
0.0
 30
0.0
  9
$PLIMCHECK
 70
     0
  9
$PEXTMIN
 10
1.0000000000E+20
 20
1.0000000000E+20
 30
1.0000000000E+20
  9
$PEXTMAX
 10
-1.0000000000E+20
 20
-1.0000000000E+20
 30
-1.0000000000E+20
  9
$PLIMMIN
 10
0.0
 20
0.0
  9
$PLIMMAX
 10
420.0
 20
297.0
  9
$UNITMODE
 70
     0
  9
$VISRETAIN
 70
     1
  9
$PLINEGEN
 70
     0
  9
$PSLTSCALE
 70
     1
  9
$TREEDEPTH
 70
  3020
  9
$CMLSTYLE
  2
Standard
  9
$CMLJUST
 70
     0
  9
$CMLSCALE
 40
20.0
  9
$PROXYGRAPHICS
 70
     1
  9
$MEASUREMENT
 70
     1
  9
$CELWEIGHT
370
    -1
  9
$ENDCAPS
280
     0
  9
$JOINSTYLE
280
     0
  9
$LWDISPLAY
290
     1
  9
$INSUNITS
 70
     4
  9
$HYPERLINKBASE
  1

  9
$STYLESHEET
  1

  9
$XEDIT
290
     1
  9
$CEPSNTYPE
380
     0
  9
$PSTYLEMODE
290
     1
  9
$FINGERPRINTGUID
  2
{3e40524f-01fa-4795-8200-e1ff709b9d97}
  9
$VERSIONGUID
  2
{FAEB1C32-E019-11D5-929B-00C0DF256EC4}
  9
$EXTNAMES
290
     1
  9
$PSVPSCALE
 40
0.0
  9
$OLESTARTUP
290
     0
  0
ENDSEC
  0
SECTION
  2
CLASSES
  0
CLASS
  1
ACDBDICTIONARYWDFLT
  2
AcDbDictionaryWithDefault
  3
ObjectDBX Classes
 90
        0
280
     0
281
     0
  0
CLASS
  1
VISUALSTYLE
  2
AcDbVisualStyle
  3
ObjectDBX Classes
 90
     4095
280
     0
281
     0
  0
CLASS
  1
MATERIAL
  2
AcDbMaterial
  3
ObjectDBX Classes
 90
     1153
280
     0
281
     0
  0
CLASS
  1
SCALE
  2
AcDbScale
  3
ObjectDBX Classes
 90
     1153
280
     0
281
     0
  0
CLASS
  1
TABLESTYLE
  2
AcDbTableStyle
  3
ObjectDBX Classes
 90
     4095
280
     0
281
     0
  0
CLASS
  1
MLEADERSTYLE
  2
AcDbMLeaderStyle
  3
ACDB_MLEADERSTYLE_CLASS
 90
     4095
280
     0
281
     0
  0
CLASS
  1
SUN
  2
AcDbSun
  3
SCENEOE
 90
     1153
280
     0
281
     0
  0
CLASS
  1
ACDBPLACEHOLDER
  2
AcDbPlaceHolder
  3
ObjectDBX Classes
 90
        0
280
     0
281
     0
  0
CLASS
  1
LAYOUT
  2
AcDbLayout
  3
ObjectDBX Classes
 90
        0
280
     0
281
     0
  0
ENDSEC
  0
SECTION
  2
TABLES
  0
TABLE
  2
VPORT
  5
8
330
0
100
AcDbSymbolTable
 70
     1
  0
VPORT
  5
29
330
8
100
AcDbSymbolTableRecord
100
AcDbViewportTableRecord
  2
*Active
 70
     0
 10
0.0
 20
0.0
 11
1.0
 21
1.0
 12
139.7
 22
107.95
 13
0.0
 23
0.0
 14
10.0
 24
10.0
 15
10.0
 25
10.0
 16
0.0
 26
0.0
 36
1.0
 17
0.0
 27
0.0
 37
0.0
 40
215.9
 41
1.2941176471
 42
50.0
 43
0.0
 44
0.0
 50
0.0
 51
0.0
 71
     0
 72
  2000
 73
     1
 74
     3
 75
     0
 76
     0
 77
     0
 78
     0
281
     0
 65
     1
110
0.0
120
0.0
130
0.0
111
1.0
121
0.0
131
0.0
112
0.0
122
1.0
132
0.0
 79
     0
146
0.0
  0
ENDTAB
  0
TABLE
  2
LTYPE
  5
5
330
0
100
AcDbSymbolTable
 70
     6
  0
LTYPE
  5
14
330
5
100
AcDbSymbolTableRecord
100
AcDbLinetypeTableRecord
  2
ByBlock
 70
     0
  3

 72
    65
 73
     0
 40
0.0
  0
LTYPE
  5
15
330
5
100
AcDbSymbolTableRecord
100
AcDbLinetypeTableRecord
  2
ByLayer
 70
     0
  3

 72
    65
 73
     0
 40
0.0
  0
LTYPE
  5
16
330
5
100
AcDbSymbolTableRecord
100
AcDbLinetypeTableRecord
  2
Continuous
 70
     0
  3
Solid line
 72
    65
 73
     0
 40
0.0
  0
LTYPE
  5
6E
330
5
100
AcDbSymbolTableRecord
100
AcDbLinetypeTableRecord
  2
HIDDEN
 70
     0
  3
Hidden __ __ __ __ __ __ __ __ __ __ __ __ __ __
 72
    65
 73
     2
 40
1.905
 49
1.27
 74
     0
 49
-0.635
 74
     0
  0
LTYPE
  5
6F
330
5
100
AcDbSymbolTableRecord
100
AcDbLinetypeTableRecord
  2
PHANTOM
 70
     0
  3
Phantom ______  __  __  ______  __  __  ______
 72
    65
 73
     6
 40
12.7
 49
6.35
 74
     0
 49
-1.27
 74
     0
 49
1.27
 74
     0
 49
-1.27
 74
     0
 49
1.27
 74
     0
 49
-1.27
 74
     0
  0
LTYPE
  5
70
330
5
100
AcDbSymbolTableRecord
100
AcDbLinetypeTableRecord
  2
CENTER
 70
     0
  3
Center ____ _ ____ _ ____ _ ____ _ ____ _ ____
 72
    65
 73
     4
 40
10.16
 49
6.35
 74
     0
 49
-1.27
 74
     0
 49
1.27
 74
     0
 49
-1.27
 74
     0
  0
LTYPE
  5
71
330
5
100
AcDbSymbolTableRecord
100
AcDbLinetypeTableRecord
  2
CENTERX2
 70
     0
  3
Center (2x) ________  __  ________  __  _____
 72
    65
 73
     4
 40
20.32
 49
12.7
 74
     0
 49
-2.54
 74
     0
 49
2.54
 74
     0
 49
-2.54
 74
     0
  0
LTYPE
  5
72
330
5
100
AcDbSymbolTableRecord
100
AcDbLinetypeTableRecord
  2
DOT2
 70
     0
  3
Dot (.5x) ........................................
 72
    65
 73
     2
 40
0.635
 49
0.0
 74
     0
 49
-0.635
 74
     0
  0
ENDTAB
  0
TABLE
  2
LAYER
  5
2
330
0
100
AcDbSymbolTable
 70
    17
  0
LAYER
  5
10
330
2
100
AcDbSymbolTableRecord
100
AcDbLayerTableRecord
  2
0
 70
     0
 62
     7
  6
Continuous
370
    -3
390
F
  0
LAYER
  5
73
330
2
100
AcDbSymbolTableRecord
100
AcDbLayerTableRecord
  2
FORMAT
 70
     0
 62
     7
  6
Continuous
370
    -3
390
F
  0
LAYER
  5
74
330
2
100
AcDbSymbolTableRecord
100
AcDbLayerTableRecord
  2
YARDIMCI_GEOMETRI
 70
     0
 62
    -6
  6
Continuous
290
     0
370
    -3
390
F
  0
LAYER
  5
75
330
2
100
AcDbSymbolTableRecord
100
AcDbLayerTableRecord
  2
SAYFA_CERCEVESI
 70
     0
 62
     7
  6
Continuous
370
    25
390
F
  0
LAYER
  5
76
330
2
100
AcDbSymbolTableRecord
100
AcDbLayerTableRecord
  2
ANTET
 70
     0
 62
     7
  6
Continuous
370
    -3
390
F
  0
LAYER
  5
77
330
2
100
AcDbSymbolTableRecord
100
AcDbLayerTableRecord
  2
OLCU
 70
     0
 62
   150
  6
Continuous
370
    -3
390
F
  0
LAYER
  5
78
330
2
100
AcDbSymbolTableRecord
100
AcDbLayerTableRecord
  2
METIN
 70
     0
 62
    96
  6
Continuous
370
    -3
390
F
  0
LAYER
  5
79
330
2
100
AcDbSymbolTableRecord
100
AcDbLayerTableRecord
  2
BALON
 70
     0
 62
     5
  6
Continuous
370
    -3
390
F
  0
LAYER
  5
7A
330
2
100
AcDbSymbolTableRecord
100
AcDbLayerTableRecord
  2
VURGU
 70
     0
 62
     7
  6
Continuous
370
    -3
390
F
  0
LAYER
  5
7B
330
2
100
AcDbSymbolTableRecord
100
AcDbLayerTableRecord
  2
SILIK
 70
     0
 62
     7
  6
Continuous
370
    -3
390
F
  0
LAYER
  5
7C
330
2
100
AcDbSymbolTableRecord
100
AcDbLayerTableRecord
  2
MODEL
 70
     0
 62
     7
  6
Continuous
370
    -3
390
F
  0
LAYER
  5
7D
330
2
100
AcDbSymbolTableRecord
100
AcDbLayerTableRecord
  2
DETAYLANDıRMA
 70
     0
 62
   190
  6
Continuous
370
    -3
390
F
  0
LAYER
  5
7E
330
2
100
AcDbSymbolTableRecord
100
AcDbLayerTableRecord
  2
TOLERANS
 70
     0
 62
   230
  6
Continuous
370
    -3
390
F
  0
LAYER
  5
7F
330
2
100
AcDbSymbolTableRecord
100
AcDbLayerTableRecord
  2
MERKEZ_CIZGILERI
 70
     0
 62
    30
  6
Continuous
370
    -3
390
F
  0
LAYER
  5
80
330
2
100
AcDbSymbolTableRecord
100
AcDbLayerTableRecord
  2
KESIT-DETAY_CIZGILERI
 70
     0
 62
     7
  6
Continuous
370
    -3
390
F
  0
LAYER
  5
81
330
2
100
AcDbSymbolTableRecord
100
AcDbLayerTableRecord
  2
\U+041E\U+0421\U+0415\U+0412\U+042B\U+0415
 70
     0
 62
     7
  6
Continuous
370
    -3
390
F
  0
LAYER
  5
82
330
2
100
AcDbSymbolTableRecord
100
AcDbLayerTableRecord
  2
\U+0412\U+041E\U+0414\U+042F\U+041D\U+042B\U+0415_\U+0417\U+041D\U+0410\U+041A\U+0418
 70
     0
 62
    11
  6
Continuous
370
    -3
390
F
  0
ENDTAB
  0
TABLE
  2
STYLE
  5
3
330
0
100
AcDbSymbolTable
 70
     1
  0
STYLE
  5
11
330
3
100
AcDbSymbolTableRecord
100
AcDbTextStyleTableRecord
  2
Standard
 70
     0
 40
0.0
 41
1.0
 50
0.0
 71
     0
 42
3.5
  3
txt
  4

  0
ENDTAB
  0
TABLE
  2
VIEW
  5
6
330
0
100
AcDbSymbolTable
 70
     0
  0
ENDTAB
  0
TABLE
  2
UCS
  5
7
330
0
100
AcDbSymbolTable
 70
     0
  0
ENDTAB
  0
TABLE
  2
APPID
  5
9
330
0
100
AcDbSymbolTable
 70
     1
  0
APPID
  5
12
330
9
100
AcDbSymbolTableRecord
100
AcDbRegAppTableRecord
  2
ACAD
 70
     0
  0
ENDTAB
  0
TABLE
  2
DIMSTYLE
  5
A
330
0
100
AcDbSymbolTable
 70
     1
100
AcDbDimStyleTable
  0
DIMSTYLE
105
27
330
A
100
AcDbSymbolTableRecord
100
AcDbDimStyleTableRecord
  2
ISO-25
 70
     0
 41
2.5
 42
0.625
 43
3.75
 44
1.25
 73
     0
 74
     0
 77
     1
 78
     8
140
2.5
141
2.5
143
0.0393700787
147
0.625
171
     3
172
     1
178
     0
271
     2
272
     2
274
     3
278
    44
283
     0
284
     8
340
11
  0
ENDTAB
  0
TABLE
  2
BLOCK_RECORD
  5
1
330
0
100
AcDbSymbolTable
 70
     4
  0
BLOCK_RECORD
  5
1F
330
1
100
AcDbSymbolTableRecord
100
AcDbBlockTableRecord
  2
*Model_Space
340
22
  0
BLOCK_RECORD
  5
1B
330
1
100
AcDbSymbolTableRecord
100
AcDbBlockTableRecord
  2
*Paper_Space
340
1E
  0
BLOCK_RECORD
  5
23
330
1
100
AcDbSymbolTableRecord
100
AcDbBlockTableRecord
  2
*Paper_Space0
340
26
  0
BLOCK_RECORD
  5
93
330
1
100
AcDbSymbolTableRecord
100
AcDbBlockTableRecord
  2
SW_CENTERMARKSYMBOL_0
340
0
102
{BLKREFS
331
9E
102
}
  0
BLOCK_RECORD
  5
E9
330
1
100
AcDbSymbolTableRecord
100
AcDbBlockTableRecord
  2
SW_CENTERMARKSYMBOL_1
340
0
102
{BLKREFS
331
F4
102
}
  0
BLOCK_RECORD
  5
F5
330
1
100
AcDbSymbolTableRecord
100
AcDbBlockTableRecord
  2
SW_CENTERMARKSYMBOL_2
340
0
102
{BLKREFS
331
100
102
}
  0
ENDTAB
  0
ENDSEC
  0
SECTION
  2
BLOCKS
  0
BLOCK
  5
20
330
1F
100
AcDbEntity
  8
0
100
AcDbBlockBegin
  2
*Model_Space
 70
     0
 10
0.0
 20
0.0
 30
0.0
  3
*Model_Space
  1

  0
ENDBLK
  5
21
330
1F
100
AcDbEntity
  8
0
100
AcDbBlockEnd
  0
BLOCK
  5
1C
330
1B
100
AcDbEntity
 67
     1
  8
0
100
AcDbBlockBegin
  2
*Paper_Space
 70
     0
 10
0.0
 20
0.0
 30
0.0
  3
*Paper_Space
  1

  0
ENDBLK
  5
1D
330
1B
100
AcDbEntity
 67
     1
  8
0
100
AcDbBlockEnd
  0
BLOCK
  5
24
330
23
100
AcDbEntity
  8
0
100
AcDbBlockBegin
  2
*Paper_Space0
 70
     0
 10
0.0
 20
0.0
 30
0.0
  3
*Paper_Space0
  1

  0
ENDBLK
  5
25
330
23
100
AcDbEntity
  8
0
100
AcDbBlockEnd
  0
BLOCK
  5
94
330
93
100
AcDbEntity
  8
0
100
AcDbBlockBegin
  2
SW_CENTERMARKSYMBOL_0
 70
     0
 10
0.0
 20
0.0
 30
0.0
  3
SW_CENTERMARKSYMBOL_0
  1

  0
LINE
  5
96
330
93
100
AcDbEntity
  8
FORMAT
 62
     0
100
AcDbLine
 10
0.0
 20
0.0
 30
0.0
 11
0.0
 21
2.5
 31
0.0
  0
LINE
  5
97
330
93
100
AcDbEntity
  8
FORMAT
 62
     0
100
AcDbLine
 10
0.0
 20
0.0
 30
0.0
 11
-2.5
 21
0.0
 31
0.0
  0
LINE
  5
98
330
93
100
AcDbEntity
  8
FORMAT
 62
     0
100
AcDbLine
 10
0.0
 20
0.0
 30
0.0
 11
0.0
 21
-2.5
 31
0.0
  0
LINE
  5
99
330
93
100
AcDbEntity
  8
FORMAT
 62
     0
100
AcDbLine
 10
0.0
 20
0.0
 30
0.0
 11
2.5
 21
0.0
 31
0.0
  0
LINE
  5
9A
330
93
100
AcDbEntity
  8
FORMAT
 62
     0
100
AcDbLine
 10
0.0
 20
5.0
 30
0.0
 11
0.0
 21
502.5
 31
0.0
  0
LINE
  5
9B
330
93
100
AcDbEntity
  8
FORMAT
 62
     0
100
AcDbLine
 10
-5.0
 20
0.0
 30
0.0
 11
-502.5
 21
0.0
 31
0.0
  0
LINE
  5
9C
330
93
100
AcDbEntity
  8
FORMAT
 62
     0
100
AcDbLine
 10
0.0
 20
-5.0
 30
0.0
 11
0.0
 21
-502.5
 31
0.0
  0
LINE
  5
9D
330
93
100
AcDbEntity
  8
FORMAT
 62
     0
100
AcDbLine
 10
5.0
 20
0.0
 30
0.0
 11
502.5
 21
0.0
 31
0.0
  0
ENDBLK
  5
95
330
93
100
AcDbEntity
  8
0
100
AcDbBlockEnd
  0
BLOCK
  5
EA
330
E9
100
AcDbEntity
  8
0
100
AcDbBlockBegin
  2
SW_CENTERMARKSYMBOL_1
 70
     0
 10
0.0
 20
0.0
 30
0.0
  3
SW_CENTERMARKSYMBOL_1
  1

  0
LINE
  5
EC
330
E9
100
AcDbEntity
  8
FORMAT
 62
     0
100
AcDbLine
 10
0.0
 20
0.0
 30
0.0
 11
0.0
 21
2.5
 31
0.0
  0
LINE
  5
ED
330
E9
100
AcDbEntity
  8
FORMAT
 62
     0
100
AcDbLine
 10
0.0
 20
0.0
 30
0.0
 11
-2.5
 21
0.0
 31
0.0
  0
LINE
  5
EE
330
E9
100
AcDbEntity
  8
FORMAT
 62
     0
100
AcDbLine
 10
0.0
 20
0.0
 30
0.0
 11
0.0
 21
-2.5
 31
0.0
  0
LINE
  5
EF
330
E9
100
AcDbEntity
  8
FORMAT
 62
     0
100
AcDbLine
 10
0.0
 20
0.0
 30
0.0
 11
2.5
 21
0.0
 31
0.0
  0
LINE
  5
F0
330
E9
100
AcDbEntity
  8
FORMAT
 62
     0
100
AcDbLine
 10
0.0
 20
5.0
 30
0.0
 11
0.0
 21
9.5
 31
0.0
  0
LINE
  5
F1
330
E9
100
AcDbEntity
  8
FORMAT
 62
     0
100
AcDbLine
 10
-5.0
 20
0.0
 30
0.0
 11
-9.5
 21
0.0
 31
0.0
  0
LINE
  5
F2
330
E9
100
AcDbEntity
  8
FORMAT
 62
     0
100
AcDbLine
 10
0.0
 20
-5.0
 30
0.0
 11
0.0
 21
-9.5
 31
0.0
  0
LINE
  5
F3
330
E9
100
AcDbEntity
  8
FORMAT
 62
     0
100
AcDbLine
 10
5.0
 20
0.0
 30
0.0
 11
9.5
 21
0.0
 31
0.0
  0
ENDBLK
  5
EB
330
E9
100
AcDbEntity
  8
0
100
AcDbBlockEnd
  0
BLOCK
  5
F6
330
F5
100
AcDbEntity
  8
0
100
AcDbBlockBegin
  2
SW_CENTERMARKSYMBOL_2
 70
     0
 10
0.0
 20
0.0
 30
0.0
  3
SW_CENTERMARKSYMBOL_2
  1

  0
LINE
  5
F8
330
F5
100
AcDbEntity
  8
FORMAT
 62
     0
100
AcDbLine
 10
0.0
 20
0.0
 30
0.0
 11
0.0
 21
2.5
 31
0.0
  0
LINE
  5
F9
330
F5
100
AcDbEntity
  8
FORMAT
 62
     0
100
AcDbLine
 10
0.0
 20
0.0
 30
0.0
 11
-2.5
 21
0.0
 31
0.0
  0
LINE
  5
FA
330
F5
100
AcDbEntity
  8
FORMAT
 62
     0
100
AcDbLine
 10
0.0
 20
0.0
 30
0.0
 11
0.0
 21
-2.5
 31
0.0
  0
LINE
  5
FB
330
F5
100
AcDbEntity
  8
FORMAT
 62
     0
100
AcDbLine
 10
0.0
 20
0.0
 30
0.0
 11
2.5
 21
0.0
 31
0.0
  0
LINE
  5
FC
330
F5
100
AcDbEntity
  8
FORMAT
 62
     0
100
AcDbLine
 10
0.0
 20
5.0
 30
0.0
 11
0.0
 21
9.5
 31
0.0
  0
LINE
  5
FD
330
F5
100
AcDbEntity
  8
FORMAT
 62
     0
100
AcDbLine
 10
-5.0
 20
0.0
 30
0.0
 11
-9.5
 21
0.0
 31
0.0
  0
LINE
  5
FE
330
F5
100
AcDbEntity
  8
FORMAT
 62
     0
100
AcDbLine
 10
0.0
 20
-5.0
 30
0.0
 11
0.0
 21
-9.5
 31
0.0
  0
LINE
  5
FF
330
F5
100
AcDbEntity
  8
FORMAT
 62
     0
100
AcDbLine
 10
5.0
 20
0.0
 30
0.0
 11
9.5
 21
0.0
 31
0.0
  0
ENDBLK
  5
F7
330
F5
100
AcDbEntity
  8
0
100
AcDbBlockEnd
  0
ENDSEC
  0
SECTION
  2
ENTITIES
  0
LINE
  5
83
330
1F
100
AcDbEntity
  8
0
  6
Continuous
 62
     7
370
    25
100
AcDbLine
 10
102.6070913462
 20
667.8760329436
 30
0.0
 11
102.6070913462
 21
675.8949519231
 31
0.0
  0
LINE
  5
84
330
1F
100
AcDbEntity
  8
0
  6
Continuous
 62
     7
370
    25
100
AcDbLine
 10
88.6070913462
 20
675.8949519231
 30
0.0
 11
88.6070913462
 21
667.0291710742
 31
0.0
  0
LINE
  5
85
330
1F
100
AcDbEntity
  8
0
  6
Continuous
 62
     7
370
    25
100
AcDbLine
 10
172.6070913462
 20
667.0268136051
 30
0.0
 11
172.6070913462
 21
675.8949519231
 31
0.0
  0
LINE
  5
86
330
1F
100
AcDbEntity
  8
0
  6
Continuous
 62
     7
370
    25
100
AcDbLine
 10
158.6070913462
 20
675.8949519231
 30
0.0
 11
158.6070913462
 21
667.8743674785
 31
0.0
  0
CIRCLE
  5
87
330
1F
100
AcDbEntity
  8
0
  6
Continuous
 62
     7
370
    25
100
AcDbCircle
 10
130.6070913462
 20
95.8949519231
 30
0.0
 40
572.5
  0
ARC
  5
88
330
1F
100
AcDbEntity
  8
0
  6
Continuous
 62
     7
370
    25
100
AcDbCircle
 10
130.6070913462
 20
95.8949519231
 30
0.0
 40
574.5000000000005
100
AcDbArc
 50
94.1924656031
 51
180.0
  0
ARC
  5
89
330
1F
100
AcDbEntity
  8
0
  6
Continuous
 62
     7
370
    25
100
AcDbCircle
 10
130.6070913462
 20
95.8949519231
 30
0.0
 40
574.5000000000003
100
AcDbArc
 50
87.2064096774
 51
92.7935903226
  0
ARC
  5
8A
330
1F
100
AcDbEntity
  8
0
  6
Continuous
 62
     7
370
    25
100
AcDbCircle
 10
130.6070913462
 20
95.8949519231
 30
0.0
 40
574.5000000000005
100
AcDbArc
 50
180.0
 51
85.8075343969
  0
SPLINE
  5
8B
330
1F
100
AcDbEntity
  8
0
  6
Continuous
 62
     7
370
    25
100
AcDbSpline
210
0.0
220
0.0
230
1.0
 70
     8
 71
     3
 72
    15
 73
    11
 74
     0
 42
0.00000001
 43
0.00000001
 40
0.0
 40
0.0
 40
0.0
 40
0.0
 40
0.133639344901828
 40
0.2672734077256695
 40
0.4010327633527101
 40
0.5348943254163835
 40
0.6687130516273895
 40
0.8023166210170937
 40
0.9356092044687265
 40
1.0
 40
1.0
 40
1.0
 40
1.0
 10
101.3254384423011
 20
667.758910774399
 30
0.0
 10
100.8075965407554
 20
667.7236656848609
 30
0.0
 10
99.77193320529888
 20
667.6531768988419
 30
0.0
 10
97.57597607090942
 20
667.5165323175431
 30
0.0
 10
95.20263761137717
 20
667.3706409120508
 30
0.0
 10
92.86415500666973
 20
667.2283990772637
 30
0.0
 10
90.82763341594605
 20
667.107786878948
 30
0.0
 10
89.37397824914657
 20
667.0306350892591
 30
0.0
 10
88.62432961761755
 20
667.0018385186014
 30
0.0
 10
88.68582020201599
 20
667.0224555517974
 30
0.0
 10
88.7058493398599
 20
667.0291710742446
 30
0.0
  0
SPLINE
  5
8C
330
1F
100
AcDbEntity
  8
0
  6
Continuous
 62
     7
370
    25
100
AcDbSpline
210
0.0
220
0.0
230
1.0
 70
     8
 71
     3
 72
    10
 73
     6
 74
     0
 42
0.00000001
 43
0.00000001
 40
0.0
 40
0.0
 40
0.0
 40
0.0
 40
0.1103505192998934
 40
0.6579667656561955
 40
1.0
 40
1.0
 40
1.0
 40
1.0
 10
102.5434736233002
 20
667.8760329436417
 30
0.0
 10
102.5631433380356
 20
667.8748408134949
 30
0.0
 10
102.680424331981
 20
667.8677327181094
 30
0.0
 10
102.2282652599609
 20
667.8257348740221
 30
0.0
 10
101.576149743779
 20
667.777467552575
 30
0.0
 10
101.3254384423011
 20
667.758910774399
 30
0.0
  0
SPLINE
  5
8D
330
1F
100
AcDbEntity
  8
0
  6
Continuous
 62
     7
370
    25
100
AcDbSpline
210
0.0
220
0.0
230
1.0
 70
     8
 71
     3
 72
    14
 73
    10
 74
     0
 42
0.00000001
 43
0.00000001
 40
0.0
 40
0.0
 40
0.0
 40
0.0
 40
0.1546118766629308
 40
0.3092171772480745
 40
0.4639569007059587
 40
0.618690122042268
 40
0.7732719209627152
 40
0.9276448230371028
 40
1.0
 40
1.0
 40
1.0
 40
1.0
 10
169.6437939678805
 20
667.152243583124
 30
0.0
 10
168.955088285755
 20
667.1931228480979
 30
0.0
 10
167.5777062140928
 20
667.2748796393358
 30
0.0
 10
165.1666389807409
 20
667.4224876282467
 30
0.0
 10
162.8402832090421
 20
667.5658254922636
 30
0.0
 10
160.8057666407026
 20
667.6946210759158
 30
0.0
 10
159.36051674301
 20
667.7951052424677
 30
0.0
 10
158.6193067003033
 20
667.8575892103898
 30
0.0
 10
158.6850541233124
 20
667.8703084262999
 30
0.0
 10
158.7060359375053
 20
667.8743674785442
 30
0.0
  0
SPLINE
  5
8E
330
1F
100
AcDbEntity
  8
0
  6
Continuous
 62
     7
370
    25
100
AcDbSpline
210
0.0
220
0.0
230
1.0
 70
     8
 71
     3
 72
    11
 73
     7
 74
     0
 42
0.00000001
 43
0.00000001
 40
0.0
 40
0.0
 40
0.0
 40
0.0
 40
0.0770272105761708
 40
0.428919324638728
 40
0.7805993064566754
 40
0.9999999999999999
 40
0.9999999999999999
 40
0.9999999999999999
 40
0.9999999999999999
 10
172.5393962359997
 20
667.0268136051459
 30
0.0
 10
172.5602180699879
 20
667.0229376944698
 30
0.0
 10
172.6761626421093
 20
667.0013550228773
 30
0.0
 10
172.101438443958
 20
667.0196070328624
 30
0.0
 10
171.0221230268278
 20
667.0726833819814
 30
0.0
 10
170.0263537135745
 20
667.130161388659
 30
0.0
 10
169.6437939678805
 20
667.152243583124
 30
0.0
  0
CIRCLE
  5
8F
330
1F
100
AcDbEntity
  8
0
  6
Continuous
 62
     7
370
    25
100
AcDbCircle
 10
130.6070913462
 20
95.8949519231
 30
0.0
 40
500.0
  0
LINE
  5
90
330
1F
100
AcDbEntity
  8
0
  6
Continuous
 62
     7
370
    25
100
AcDbLine
 10
95.6070913462
 20
675.8949519231
 30
0.0
 11
88.6070913462
 21
675.8949519231
 31
0.0
  0
LINE
  5
91
330
1F
100
AcDbEntity
  8
0
  6
Continuous
 62
     7
370
    25
100
AcDbLine
 10
102.6070913462
 20
675.8949519231
 30
0.0
 11
95.6070913462
 21
675.8949519231
 31
0.0
  0
LINE
  5
92
330
1F
100
AcDbEntity
  8
0
  6
Continuous
 62
     7
370
    25
100
AcDbLine
 10
172.6070913462
 20
675.8949519231
 30
0.0
 11
158.6070913462
 21
675.8949519231
 31
0.0
  0
INSERT
  5
9E
330
1F
100
AcDbEntity
  8
FORMAT
 62
     7
100
AcDbBlockReference
  2
SW_CENTERMARKSYMBOL_0
 10
130.6070913462
 20
95.8949519231
 30
0.0
  0
ARC
  5
9F
330
1F
100
AcDbEntity
  8
0
  6
Continuous
 62
     7
370
    25
100
AcDbCircle
 10
1514.0095317829
 20
-18582.1675480771
 30
0.0
 40
19252.56250000019
100
AcDbArc
 50
90.0
 51
90.7693211777
  0
LINE
  5
A0
330
1F
100
AcDbEntity
  8
0
  6
Continuous
 62
     7
370
    25
100
AcDbLine
 10
1241.5095317829
 20
668.4663782749
 30
0.0
 11
1236.5095317829
 21
668.3949519231
 31
0.0
  0
ARC
  5
A1
330
1F
100
AcDbEntity
  8
0
  6
Continuous
 62
     7
370
    25
100
AcDbCircle
 10
1514.0095317829
 20
18773.9574519233
 30
0.0
 40
19252.5625000002
100
AcDbArc
 50
269.1741291893
 51
270.0
  0
LINE
  5
A2
330
1F
100
AcDbEntity
  8
0
  6
Continuous
 62
     7
370
    25
100
AcDbLine
 10
1514.0095317829
 20
-478.6050480769
 30
0.0
 11
1559.0095317829
 21
-478.6050480769
 31
0.0
  0
LINE
  5
A3
330
1F
100
AcDbEntity
  8
0
  6
Continuous
 62
     7
370
    25
100
AcDbLine
 10
1559.0095317829
 20
670.3949519231
 30
0.0
 11
1514.0095317829
 21
670.3949519231
 31
0.0
  0
LINE
  5
A4
330
1F
100
AcDbEntity
  8
0
  6
Continuous
 62
     7
370
    25
100
AcDbLine
 10
1836.5095317829
 20
668.3949519231
 30
0.0
 11
1831.5095317829
 21
668.4663782749
 31
0.0
  0
ARC
  5
A5
330
1F
100
AcDbEntity
  8
0
  6
Continuous
 62
     7
370
    25
100
AcDbCircle
 10
1559.0095317829
 20
-18582.1675480771
 30
0.0
 40
19252.56250000019
100
AcDbArc
 50
89.2306788223
 51
90.0
  0
ARC
  5
A6
330
1F
100
AcDbEntity
  8
0
  6
Continuous
 62
     7
370
    25
100
AcDbCircle
 10
1559.0095317829
 20
18773.9574519233
 30
0.0
 40
19252.5625000002
100
AcDbArc
 50
270.0
 51
270.8258708107
  0
LINE
  5
A7
330
1F
100
AcDbEntity
  8
0
  6
Continuous
 62
     7
370
    25
100
AcDbLine
 10
1255.5095317829
 20
667.5877038322
 30
0.0
 11
1255.5095317829
 21
675.8949519231
 31
0.0
  0
LINE
  5
A8
330
1F
100
AcDbEntity
  8
0
  6
Continuous
 62
     7
370
    25
100
AcDbLine
 10
1241.5095317829
 20
675.8949519231
 30
0.0
 11
1241.5095317829
 21
667.3953759594
 31
0.0
  0
LINE
  5
A9
330
1F
100
AcDbEntity
  8
0
  6
Continuous
 62
     7
370
    25
100
AcDbLine
 10
1831.5095317829
 20
667.3953755767
 30
0.0
 11
1831.5095317829
 21
675.8949519231
 31
0.0
  0
LINE
  5
AA
330
1F
100
AcDbEntity
  8
0
  6
Continuous
 62
     7
370
    25
100
AcDbLine
 10
1817.5095317829
 20
675.8949519231
 30
0.0
 11
1817.5095317829
 21
667.5874759601
 31
0.0
  0
LINE
  5
AB
330
1F
100
AcDbEntity
  8
0
  6
Continuous
 62
     7
370
    25
100
AcDbLine
 10
1236.5095317829
 20
95.8949519231
 30
0.0
 11
1236.5095317829
 21
668.3949519231
 31
0.0
  0
LINE
  5
AC
330
1F
100
AcDbEntity
  8
0
  6
Continuous
 62
     7
370
    25
100
AcDbLine
 10
1236.5095317829
 20
-476.6050480769
 30
0.0
 11
1236.5095317829
 21
95.8949519231
 31
0.0
  0
SPLINE
  5
AD
330
1F
100
AcDbEntity
  8
0
  6
Continuous
 62
     7
370
    25
100
AcDbSpline
210
0.0
220
0.0
230
1.0
 70
     8
 71
     3
 72
    18
 73
    14
 74
     0
 42
0.00000001
 43
0.00000001
 40
0.0
 40
0.0
 40
0.0
 40
0.0
 40
0.0127710347834036
 40
0.1203435479665255
 40
0.228068700029554
 40
0.3357887629268071
 40
0.4433159868916938
 40
0.55055748709905
 40
0.657589831642756
 40
0.7646125034508383
 40
0.871815787829259
 40
0.9792688994447801
 40
1.0
 40
1.0
 40
1.0
 40
1.0
 10
1255.468125999462
 20
667.5877038322047
 30
0.0
 10
1255.481527623612
 20
667.5823946623216
 30
0.0
 10
1255.607813318243
 20
667.5323654868205
 30
0.0
 10
1255.090421091231
 20
667.4167613565232
 30
0.0
 10
1253.905840337571
 20
667.2627044552391
 30
0.0
 10
1252.031427734701
 20
667.1287828539055
 30
0.0
 10
1249.781141917532
 20
667.0381014599067
 30
0.0
 10
1247.384021266129
 20
667.0031545338873
 30
0.0
 10
1245.123706451597
 20
667.0279064821622
 30
0.0
 10
1243.226045722957
 20
667.1064438257924
 30
0.0
 10
1241.989241648407
 20
667.2252252283508
 30
0.0
 10
1241.432695682166
 20
667.3289771474681
 30
0.0
 10
1241.552041305236
 20
667.386132313292
 30
0.0
 10
1241.571342949883
 20
667.3953759593688
 30
0.0
  0
LINE
  5
AE
330
1F
100
AcDbEntity
  8
0
  6
Continuous
 62
     7
370
    25
100
AcDbLine
 10
1836.5095317829
 20
95.8949519231
 30
0.0
 11
1836.5095317829
 21
668.3949519231
 31
0.0
  0
LINE
  5
AF
330
1F
100
AcDbEntity
  8
0
  6
Continuous
 62
     7
370
    25
100
AcDbLine
 10
1836.5095317829
 20
-476.6050480769
 30
0.0
 11
1836.5095317829
 21
95.8949519231
 31
0.0
  0
SPLINE
  5
B0
330
1F
100
AcDbEntity
  8
0
  6
Continuous
 62
     7
370
    25
100
AcDbSpline
210
0.0
220
0.0
230
1.0
 70
     8
 71
     3
 72
    18
 73
    14
 74
     0
 42
0.00000001
 43
0.00000001
 40
0.0
 40
0.0
 40
0.0
 40
0.0
 40
0.0180226670875793
 40
0.1257021832261337
 40
0.2333472417966044
 40
0.3408192261697139
 40
0.4480410504907431
 40
0.5550717999271122
 40
0.6620969017021133
 40
0.7693190797337339
 40
0.876826031671864
 40
0.9845375226160596
 40
1.0
 40
1.0
 40
1.0
 40
1.0
 10
1831.454170619516
 20
667.3953755767348
 30
0.0
 10
1831.47169991145
 20
667.3873464509232
 30
0.0
 10
1831.593960965032
 20
667.3313459356283
 30
0.0
 10
1831.049487111522
 20
667.2281876668096
 30
0.0
 10
1829.825066701631
 20
667.1083276741207
 30
0.0
 10
1827.928519966052
 20
667.028688434267
 30
0.0
 10
1825.668843028076
 20
667.0030934905187
 30
0.0
 10
1823.27572619836
 20
667.037149457602
 30
0.0
 10
1821.029383995329
 20
667.1266037539342
 30
0.0
 10
1819.15183026189
 20
667.2592298587784
 30
0.0
 10
1817.949485131895
 20
667.412793292256
 30
0.0
 10
1817.417926211926
 20
667.5296543125054
 30
0.0
 10
1817.542781332412
 20
667.5810269638644
 30
0.0
 10
1817.558454850956
 20
667.5874759601138
 30
0.0
  0
LINE
  5
B1
330
1F
100
AcDbEntity
  8
0
  6
Continuous
 62
     7
370
    25
100
AcDbLine
 10
1255.5095317829
 20
675.8949519231
 30
0.0
 11
1241.5095317829
 21
675.8949519231
 31
0.0
  0
LINE
  5
B2
330
1F
100
AcDbEntity
  8
0
  6
Continuous
 62
     7
370
    25
100
AcDbLine
 10
1831.5095317829
 20
675.8949519231
 30
0.0
 11
1817.5095317829
 21
675.8949519231
 31
0.0
  0
LINE
  5
B3
330
1F
100
AcDbEntity
  8
0
  6
Continuous
 62
     1
370
    25
100
AcDbLine
 10
1514.0095317829
 20
95.8949519231
 30
0.0
 11
1514.0095317829
 21
670.3949519231
 31
0.0
  0
LINE
  5
B4
330
1F
100
AcDbEntity
  8
0
  6
Continuous
 62
     1
370
    25
100
AcDbLine
 10
1514.0095317829
 20
-478.6050480769
 30
0.0
 11
1514.0095317829
 21
95.8949519231
 31
0.0
  0
LINE
  5
B5
330
1F
100
AcDbEntity
  8
0
  6
Continuous
 62
     1
370
    25
100
AcDbLine
 10
1559.0095317829
 20
95.8949519231
 30
0.0
 11
1559.0095317829
 21
670.3949519231
 31
0.0
  0
LINE
  5
B6
330
1F
100
AcDbEntity
  8
0
  6
Continuous
 62
     1
370
    25
100
AcDbLine
 10
1559.0095317829
 20
-478.6050480769
 30
0.0
 11
1559.0095317829
 21
95.8949519231
 31
0.0
  0
ARC
  5
B7
330
1F
100
AcDbEntity
  8
0
  6
Continuous
 62
     7
370
    25
100
AcDbCircle
 10
18808.6695913463
 20
1535.6415945674
 30
0.0
 40
19252.5625000002
100
AcDbArc
 50
180.0
 51
180.8258708107
  0
ARC
  5
B8
330
1F
100
AcDbEntity
  8
0
  6
Continuous
 62
     7
370
    25
100
AcDbCircle
 10
-18547.455408654
 20
1535.6415945674
 30
0.0
 40
19252.5625000002
100
AcDbArc
 50
359.1741291893
 51
0.0
  0
LINE
  5
B9
330
1F
100
AcDbEntity
  8
0
  6
Continuous
 62
     7
370
    25
100
AcDbLine
 10
705.1070913462
 20
1535.6415945674
 30
0.0
 11
705.1070913462
 21
1580.6415945674
 31
0.0
  0
LINE
  5
BA
330
1F
100
AcDbEntity
  8
0
  6
Continuous
 62
     7
370
    25
100
AcDbLine
 10
-443.8929086538
 20
1580.6415945674
 30
0.0
 11
-443.8929086538
 21
1535.6415945674
 31
0.0
  0
ARC
  5
BB
330
1F
100
AcDbEntity
  8
0
  6
Continuous
 62
     7
370
    25
100
AcDbCircle
 10
18808.6695913463
 20
1580.6415945674
 30
0.0
 40
19252.5625000002
100
AcDbArc
 50
179.1741291893
 51
180.0
  0
ARC
  5
BC
330
1F
100
AcDbEntity
  8
0
  6
Continuous
 62
     7
370
    25
100
AcDbCircle
 10
-18547.455408654
 20
1580.6415945674
 30
0.0
 40
19252.5625000002
100
AcDbArc
 50
0.0
 51
0.8258708107
  0
LINE
  5
BD
330
1F
100
AcDbEntity
  8
0
  6
Continuous
 62
     7
370
    25
100
AcDbLine
 10
703.1070913462
 20
1258.1415945674
 30
0.0
 11
-441.8929086538
 21
1258.1415945674
 31
0.0
  0
LINE
  5
BE
330
1F
100
AcDbEntity
  8
0
  6
Continuous
 62
     7
370
    25
100
AcDbLine
 10
703.1070913462
 20
1858.1415945674
 30
0.0
 11
-441.8929086538
 21
1858.1415945674
 31
0.0
  0
LINE
  5
BF
330
1F
100
AcDbEntity
  8
0
  6
Continuous
 62
     1
370
    25
100
AcDbLine
 10
705.1070913462
 20
1535.6415945674
 30
0.0
 11
-443.8929086538
 21
1535.6415945674
 31
0.0
  0
LINE
  5
C0
330
1F
100
AcDbEntity
  8
0
  6
Continuous
 62
     1
370
    25
100
AcDbLine
 10
705.1070913462
 20
1580.6415945674
 30
0.0
 11
-443.8929086538
 21
1580.6415945674
 31
0.0
  0
ARC
  5
C1
330
1F
100
AcDbEntity
  8
0
  6
Continuous
 62
     7
370
    25
100
AcDbCircle
 10
-1241.7370849728
 20
18773.9574519233
 30
0.0
 40
19252.5625000002
100
AcDbArc
 50
270.0
 51
270.8258708107
  0
LINE
  5
C2
330
1F
100
AcDbEntity
  8
0
  6
Continuous
 62
     7
370
    25
100
AcDbLine
 10
-964.2370849728
 20
668.3949519231
 30
0.0
 11
-969.2370849728
 21
668.4663782749
 31
0.0
  0
ARC
  5
C3
330
1F
100
AcDbEntity
  8
0
  6
Continuous
 62
     7
370
    25
100
AcDbCircle
 10
-1241.7370849728
 20
-18582.1675480771
 30
0.0
 40
19252.56250000019
100
AcDbArc
 50
89.2306788223
 51
90.0
  0
LINE
  5
C4
330
1F
100
AcDbEntity
  8
0
  6
Continuous
 62
     7
370
    25
100
AcDbLine
 10
-1241.7370849728
 20
670.3949519231
 30
0.0
 11
-1286.7370849728
 21
670.3949519231
 31
0.0
  0
LINE
  5
C5
330
1F
100
AcDbEntity
  8
0
  6
Continuous
 62
     7
370
    25
100
AcDbLine
 10
-1286.7370849728
 20
-478.6050480769
 30
0.0
 11
-1241.7370849728
 21
-478.6050480769
 31
0.0
  0
ARC
  5
C6
330
1F
100
AcDbEntity
  8
0
  6
Continuous
 62
     7
370
    25
100
AcDbCircle
 10
-1286.7370849728
 20
18773.9574519233
 30
0.0
 40
19252.5625000002
100
AcDbArc
 50
269.1741291893
 51
270.0
  0
ARC
  5
C7
330
1F
100
AcDbEntity
  8
0
  6
Continuous
 62
     7
370
    25
100
AcDbCircle
 10
-1286.7370849728
 20
-18582.1675480771
 30
0.0
 40
19252.56250000019
100
AcDbArc
 50
90.0
 51
90.7693211777
  0
LINE
  5
C8
330
1F
100
AcDbEntity
  8
0
  6
Continuous
 62
     7
370
    25
100
AcDbLine
 10
-1559.2370849728
 20
668.4663782749
 30
0.0
 11
-1564.2370849728
 21
668.3949519231
 31
0.0
  0
LINE
  5
C9
330
1F
100
AcDbEntity
  8
0
  6
Continuous
 62
     7
370
    25
100
AcDbLine
 10
-969.2370849728
 20
667.3961277156
 30
0.0
 11
-969.2370849728
 21
675.8949519231
 31
0.0
  0
LINE
  5
CA
330
1F
100
AcDbEntity
  8
0
  6
Continuous
 62
     7
370
    25
100
AcDbLine
 10
-983.2370849728
 20
675.8949519231
 30
0.0
 11
-983.2370849728
 21
667.5881496277
 31
0.0
  0
LINE
  5
CB
330
1F
100
AcDbEntity
  8
0
  6
Continuous
 62
     7
370
    25
100
AcDbLine
 10
-1545.2370849728
 20
667.5882850227
 30
0.0
 11
-1545.2370849728
 21
675.8949519231
 31
0.0
  0
LINE
  5
CC
330
1F
100
AcDbEntity
  8
0
  6
Continuous
 62
     7
370
    25
100
AcDbLine
 10
-1559.2370849728
 20
675.8949519231
 30
0.0
 11
-1559.2370849728
 21
667.3961505859
 31
0.0
  0
LINE
  5
CD
330
1F
100
AcDbEntity
  8
0
  6
Continuous
 62
     7
370
    25
100
AcDbLine
 10
-964.2370849728
 20
668.3949519231
 30
0.0
 11
-964.2370849728
 21
-476.6050480769
 31
0.0
  0
SPLINE
  5
CE
330
1F
100
AcDbEntity
  8
0
  6
Continuous
 62
     7
370
    25
100
AcDbSpline
210
0.0
220
0.0
230
1.0
 70
     8
 71
     3
 72
     9
 73
     5
 74
     0
 42
0.00000001
 43
0.00000001
 40
0.0
 40
0.0
 40
0.0
 40
0.0
 40
0.5410176153431605
 40
1.0
 40
1.0
 40
1.0
 40
1.0
 10
-981.9154397964284
 20
667.3059292702092
 30
0.0
 10
-982.3293876008619
 20
667.3579190754925
 30
0.0
 10
-983.0945157458501
 20
667.4540154017657
 30
0.0
 10
-983.1571614194964
 20
667.5459522389335
 30
0.0
 10
-983.1859146801752
 20
667.5881496276946
 30
0.0
  0
SPLINE
  5
CF
330
1F
100
AcDbEntity
  8
0
  6
Continuous
 62
     7
370
    25
100
AcDbSpline
210
0.0
220
0.0
230
1.0
 70
     8
 71
     3
 72
    15
 73
    11
 74
     0
 42
0.00000001
 43
0.00000001
 40
0.0
 40
0.0
 40
0.0
 40
0.0
 40
0.1130478770738214
 40
0.2473971418446281
 40
0.3815844745198774
 40
0.5154756425884127
 40
0.6490833975621139
 40
0.7825973886409121
 40
0.9162830912374896
 40
1.0
 40
1.0
 40
1.0
 40
1.0
 10
-969.2900911156235
 20
667.3961277156274
 30
0.0
 10
-969.323344862529
 20
667.3554336817064
 30
0.0
 10
-969.3961182940432
 20
667.2663777176074
 30
0.0
 10
-970.4525113450815
 20
667.1440568458478
 30
0.0
 10
-972.1409346418836
 20
667.0493468935082
 30
0.0
 10
-974.3104471995598
 20
667.0050123840131
 30
0.0
 10
-976.6901574812499
 20
667.0194242328711
 30
0.0
 10
-979.008099339349
 20
667.0919779196803
 30
0.0
 10
-980.796161591371
 20
667.1965350698613
 30
0.0
 10
-981.6042593344815
 20
667.2755156182283
 30
0.0
 10
-981.9154397964284
 20
667.3059292702092
 30
0.0
  0
LINE
  5
D0
330
1F
100
AcDbEntity
  8
0
  6
Continuous
 62
     7
370
    25
100
AcDbLine
 10
-1564.2370849728
 20
668.3949519231
 30
0.0
 11
-1564.2370849728
 21
-476.6050480769
 31
0.0
  0
SPLINE
  5
D1
330
1F
100
AcDbEntity
  8
0
  6
Continuous
 62
     7
370
    25
100
AcDbSpline
210
0.0
220
0.0
230
1.0
 70
     8
 71
     3
 72
     9
 73
     5
 74
     0
 42
0.00000001
 43
0.00000001
 40
0.0
 40
0.0
 40
0.0
 40
0.0
 40
0.5492338204313717
 40
1.0
 40
1.0
 40
1.0
 40
1.0
 10
-1557.955916317062
 20
667.152243583124
 30
0.0
 10
-1558.363796611009
 20
667.1930521642678
 30
0.0
 10
-1559.106431676029
 20
667.2673530897132
 30
0.0
 10
-1559.156235164421
 20
667.3561320383544
 30
0.0
 10
-1559.178684892612
 20
667.3961505858596
 30
0.0
  0
SPLINE
  5
D2
330
1F
100
AcDbEntity
  8
0
  6
Continuous
 62
     7
370
    25
100
AcDbSpline
210
0.0
220
0.0
230
1.0
 70
     8
 71
     3
 72
    15
 73
    11
 74
     0
 42
0.00000001
 43
0.00000001
 40
0.0
 40
0.0
 40
0.0
 40
0.0
 40
0.1162100073742325
 40
0.2500493064807452
 40
0.3839404114816304
 40
0.5176453982532355
 40
0.651005805762452
 40
0.7840631463612721
 40
0.9170402755794016
 40
1.0
 40
1.0
 40
1.0
 40
1.0
 10
-1545.281961029677
 20
667.5882850226883
 30
0.0
 10
-1545.322076515103
 20
667.5452157354646
 30
0.0
 10
-1545.408393085737
 20
667.452543463564
 30
0.0
 10
-1546.489933299688
 20
667.2998587288686
 30
0.0
 10
-1548.195633240301
 20
667.1591311913542
 30
0.0
 10
-1550.37779297615
 20
667.0559677567288
 30
0.0
 10
-1552.764051126485
 20
667.0062149146055
 30
0.0
 10
-1555.078379223248
 20
667.0165499291492
 30
0.0
 10
-1556.853340618773
 20
667.0731232569515
 30
0.0
 10
-1557.649892819982
 20
667.1302834773979
 30
0.0
 10
-1557.955916317062
 20
667.152243583124
 30
0.0
  0
LINE
  5
D3
330
1F
100
AcDbEntity
  8
0
  6
Continuous
 62
     7
370
    25
100
AcDbLine
 10
-969.2370849728
 20
675.8949519231
 30
0.0
 11
-983.2370849728
 21
675.8949519231
 31
0.0
  0
LINE
  5
D4
330
1F
100
AcDbEntity
  8
0
  6
Continuous
 62
     7
370
    25
100
AcDbLine
 10
-1545.2370849728
 20
675.8949519231
 30
0.0
 11
-1559.2370849728
 21
675.8949519231
 31
0.0
  0
LINE
  5
D5
330
1F
100
AcDbEntity
  8
0
  6
Continuous
 62
     1
370
    25
100
AcDbLine
 10
-1241.7370849728
 20
670.3949519231
 30
0.0
 11
-1241.7370849728
 21
-478.6050480769
 31
0.0
  0
LINE
  5
D6
330
1F
100
AcDbEntity
  8
0
  6
Continuous
 62
     1
370
    25
100
AcDbLine
 10
-1286.7370849728
 20
670.3949519231
 30
0.0
 11
-1286.7370849728
 21
-478.6050480769
 31
0.0
  0
ARC
  5
D7
330
1F
100
AcDbEntity
  8
0
  6
Continuous
 62
     7
370
    25
100
AcDbCircle
 10
-18547.455408654
 20
-1430.0218601262
 30
0.0
 40
19252.5625000002
100
AcDbArc
 50
0.0
 51
0.8258708107
  0
ARC
  5
D8
330
1F
100
AcDbEntity
  8
0
  6
Continuous
 62
     7
370
    25
100
AcDbCircle
 10
18808.6695913463
 20
-1430.0218601262
 30
0.0
 40
19252.5625000002
100
AcDbArc
 50
179.1741291893
 51
180.0
  0
LINE
  5
D9
330
1F
100
AcDbEntity
  8
0
  6
Continuous
 62
     7
370
    25
100
AcDbLine
 10
-443.8929086538
 20
-1430.0218601262
 30
0.0
 11
-443.8929086538
 21
-1475.0218601262
 31
0.0
  0
LINE
  5
DA
330
1F
100
AcDbEntity
  8
0
  6
Continuous
 62
     7
370
    25
100
AcDbLine
 10
705.1070913462
 20
-1475.0218601262
 30
0.0
 11
705.1070913462
 21
-1430.0218601262
 31
0.0
  0
ARC
  5
DB
330
1F
100
AcDbEntity
  8
0
  6
Continuous
 62
     7
370
    25
100
AcDbCircle
 10
-18547.455408654
 20
-1475.0218601262
 30
0.0
 40
19252.5625000002
100
AcDbArc
 50
359.1741291893
 51
0.0
  0
ARC
  5
DC
330
1F
100
AcDbEntity
  8
0
  6
Continuous
 62
     7
370
    25
100
AcDbCircle
 10
18808.6695913463
 20
-1475.0218601262
 30
0.0
 40
19252.5625000002
100
AcDbArc
 50
180.0
 51
180.8258708107
  0
CIRCLE
  5
DD
330
1F
100
AcDbEntity
  8
0
  6
Continuous
 62
     7
370
    25
100
AcDbCircle
 10
165.6070913462
 20
-1164.5218601262
 30
0.0
 40
7.0
  0
CIRCLE
  5
DE
330
1F
100
AcDbEntity
  8
0
  6
Continuous
 62
     7
370
    25
100
AcDbCircle
 10
165.6070913462
 20
-1164.5218601262
 30
0.0
 40
4.999999999999773
  0
CIRCLE
  5
DF
330
1F
100
AcDbEntity
  8
0
  6
Continuous
 62
     7
370
    25
100
AcDbCircle
 10
95.6070913462
 20
-1164.5218601262
 30
0.0
 40
5.0
  0
CIRCLE
  5
E0
330
1F
100
AcDbEntity
  8
0
  6
Continuous
 62
     7
370
    25
100
AcDbCircle
 10
95.6070913462
 20
-1164.5218601262
 30
0.0
 40
7.000000000000227
  0
CIRCLE
  5
E1
330
1F
100
AcDbEntity
  8
0
  6
Continuous
 62
     7
370
    25
100
AcDbCircle
 10
165.6070913462
 20
-1740.5218601262
 30
0.0
 40
7.000000000000227
  0
CIRCLE
  5
E2
330
1F
100
AcDbEntity
  8
0
  6
Continuous
 62
     7
370
    25
100
AcDbCircle
 10
165.6070913462
 20
-1740.5218601262
 30
0.0
 40
5.000000000000227
  0
CIRCLE
  5
E3
330
1F
100
AcDbEntity
  8
0
  6
Continuous
 62
     7
370
    25
100
AcDbCircle
 10
95.6070913462
 20
-1740.5218601262
 30
0.0
 40
4.999999999999773
  0
CIRCLE
  5
E4
330
1F
100
AcDbEntity
  8
0
  6
Continuous
 62
     7
370
    25
100
AcDbCircle
 10
95.6070913462
 20
-1740.5218601262
 30
0.0
 40
6.999999999999773
  0
LINE
  5
E5
330
1F
100
AcDbEntity
  8
0
  6
Continuous
 62
     7
370
    25
100
AcDbLine
 10
-441.8929086538
 20
-1152.5218601262
 30
0.0
 11
703.1070913462
 21
-1152.5218601262
 31
0.0
  0
LINE
  5
E6
330
1F
100
AcDbEntity
  8
0
  6
Continuous
 62
     7
370
    25
100
AcDbLine
 10
-441.8929086538
 20
-1752.5218601262
 30
0.0
 11
703.1070913462
 21
-1752.5218601262
 31
0.0
  0
LINE
  5
E7
330
1F
100
AcDbEntity
  8
0
  6
Continuous
 62
     1
370
    25
100
AcDbLine
 10
-443.8929086538
 20
-1430.0218601262
 30
0.0
 11
705.1070913462
 21
-1430.0218601262
 31
0.0
  0
LINE
  5
E8
330
1F
100
AcDbEntity
  8
0
  6
Continuous
 62
     1
370
    25
100
AcDbLine
 10
-443.8929086538
 20
-1475.0218601262
 30
0.0
 11
705.1070913462
 21
-1475.0218601262
 31
0.0
  0
INSERT
  5
F4
330
1F
100
AcDbEntity
  8
FORMAT
 62
     7
100
AcDbBlockReference
  2
SW_CENTERMARKSYMBOL_1
 10
130.6070913462
 20
-1314.5218601262
 30
0.0
  0
INSERT
  5
100
330
1F
100
AcDbEntity
  8
FORMAT
 62
     7
100
AcDbBlockReference
  2
SW_CENTERMARKSYMBOL_2
 10
130.6070913462
 20
-1590.5218601262
 30
0.0
  0
SPLINE
  5
101
330
1F
100
AcDbEntity
  8
0
  6
Continuous
 62
     7
370
    25
100
AcDbSpline
210
0.0
220
0.0
230
1.0
 70
     8
 71
     3
 72
    12
 73
     8
 74
     0
 42
0.00000001
 43
0.00000001
 40
0.0
 40
0.0
 40
0.0
 40
0.0
 40
0.1083729837783354
 40
0.3873044026491854
 40
0.6662228593335657
 40
0.9451250963033688
 40
1.0
 40
1.0
 40
1.0
 40
1.0
 10
1269.966351157736
 20
-881.6278803896673
 30
0.0
 10
1262.767149013622
 20
-885.7729553248026
 30
0.0
 10
1237.038571754181
 20
-900.5866636469099
 30
0.0
 10
1192.943544759459
 20
-926.3486573185662
 30
0.0
 10
1137.70011919931
 20
-958.9357066083139
 30
0.0
 10
1097.336245532747
 20
-982.9435535225377
 30
0.0
 10
1075.434275349128
 20
-996.1633489268487
 30
0.0
 10
1071.83346403475
 20
-998.3367601983704
 30
0.0
  0
SPLINE
  5
102
330
1F
100
AcDbEntity
  8
0
  6
Continuous
 62
     7
370
    25
100
AcDbSpline
210
0.0
220
0.0
230
1.0
 70
     8
 71
     3
 72
    11
 73
     7
 74
     0
 42
0.00000001
 43
0.00000001
 40
0.0
 40
0.0
 40
0.0
 40
0.0
 40
0.2715371668979287
 40
0.5504862010804622
 40
0.8294326327484458
 40
1.0
 40
1.0
 40
1.0
 40
1.0
 10
1644.242281420405
 20
-1989.886203112566
 30
0.0
 10
1662.435203906333
 20
-1979.777358700818
 30
0.0
 10
1699.317642138425
 20
-1959.283739278072
 30
0.0
 10
1754.692202318612
 20
-1928.045968503798
 30
0.0
 10
1803.223587664165
 20
-1900.427993782279
 30
0.0
 10
1833.0605225095
 20
-1883.192888640882
 30
0.0
 10
1844.382104707104
 20
-1876.653052677363
 30
0.0
  0
LINE
  5
103
330
1F
100
AcDbEntity
  8
0
  6
Continuous
 62
     7
370
    25
100
AcDbLine
 10
1301.7673957774
 20
-863.226201832
 30
0.0
 11
1269.947590624
 21
-881.595384348
 31
0.0
  0
LINE
  5
104
330
1F
100
AcDbEntity
  8
0
  6
Continuous
 62
     7
370
    25
100
AcDbLine
 10
1844.4009025235
 20
-1876.6855272234
 30
0.0
 11
1876.2207076769
 21
-1858.3163447074
 31
0.0
  0
SPLINE
  5
105
330
1F
100
AcDbEntity
  8
0
  6
Continuous
 62
     7
370
    25
100
AcDbSpline
210
0.0
220
0.0
230
1.0
 70
     8
 71
     3
 72
    11
 73
     7
 74
     0
 42
0.00000001
 43
0.00000001
 40
0.0
 40
0.0
 40
0.0
 40
0.0
 40
0.2715334586795161
 40
0.550483841184674
 40
0.8294316211647819
 40
1.0
 40
1.0
 40
1.0
 40
1.0
 10
1501.925008313579
 20
-750.0260877507058
 30
0.0
 10
1483.732422305339
 20
-760.1347454201407
 30
0.0
 10
1446.850320646114
 20
-780.6281782742453
 30
0.0
 10
1391.476096064992
 20
-811.8657607060336
 30
0.0
 10
1342.944698171585
 20
-839.4837423741602
 30
0.0
 10
1313.107750922985
 20
-856.7188547229248
 30
0.0
 10
1301.78615631113
 20
-863.2586978736566
 30
0.0
  0
SPLINE
  5
106
330
1F
100
AcDbEntity
  8
0
  6
Continuous
 62
     7
370
    25
100
AcDbSpline
210
0.0
220
0.0
230
1.0
 70
     8
 71
     3
 72
    12
 73
     8
 74
     0
 42
0.00000001
 43
0.00000001
 40
0.0
 40
0.0
 40
0.0
 40
0.0
 40
0.1083733683290632
 40
0.3873052953013546
 40
0.6662242600619076
 40
0.9451270050829828
 40
1.0
 40
1.0
 40
1.0
 40
1.0
 10
1876.201909860495
 20
-1858.283870161355
 30
0.0
 10
1883.401124438529
 20
-1854.138788072703
 30
0.0
 10
1909.129714137958
 20
-1839.325072607857
 30
0.0
 10
1953.224753577763
 20
-1813.563071798937
 30
0.0
 10
2008.468178987942
 20
-1780.976022265211
 30
0.0
 10
2048.831920705053
 20
-1756.968254684989
 30
0.0
 10
2070.733759220588
 20
-1743.748539070416
 30
0.0
 10
2074.334438747982
 20
-1741.575207396108
 30
0.0
  0
LINE
  5
107
330
1F
100
AcDbEntity
  8
0
  6
Continuous
 62
     7
370
    25
100
AcDbLine
 10
1401.1861335103
 20
-1035.2790195466
 30
0.0
 11
1401.1861335103
 21
-1028.2121036934
 31
0.0
  0
LINE
  5
108
330
1F
100
AcDbEntity
  8
0
  6
Continuous
 62
     7
370
    25
100
AcDbLine
 10
1387.1861335103
 20
-1028.2121036934
 30
0.0
 11
1387.1861335103
 21
-1034.9000358976
 31
0.0
  0
LINE
  5
109
330
1F
100
AcDbEntity
  8
0
  6
Continuous
 62
     7
370
    25
100
AcDbLine
 10
1351.6886588272
 20
-1006.2169177897
 30
0.0
 11
1351.6886588272
 21
-999.6378197796
 31
0.0
  0
LINE
  5
10A
330
1F
100
AcDbEntity
  8
0
  6
Continuous
 62
     7
370
    25
100
AcDbLine
 10
1337.6886588272
 20
-999.6378197796
 30
0.0
 11
1337.6886588272
 21
-1006.8167867793
 31
0.0
  0
LINE
  5
10B
330
1F
100
AcDbEntity
  8
0
  6
Continuous
 62
     7
370
    25
100
AcDbLine
 10
1808.4796394737
 20
-800.2636940806
 30
0.0
 11
1808.4796394737
 21
-793.0865674884
 31
0.0
  0
LINE
  5
10C
330
1F
100
AcDbEntity
  8
0
  6
Continuous
 62
     7
370
    25
100
AcDbLine
 10
1794.4796394737
 20
-793.0865674884
 30
0.0
 11
1794.4796394737
 21
-799.6638679932
 31
0.0
  0
LINE
  5
10D
330
1F
100
AcDbEntity
  8
0
  6
Continuous
 62
     7
370
    25
100
AcDbLine
 10
1758.9821647906
 20
-771.2014254294
 30
0.0
 11
1758.9821647906
 21
-764.5122835746
 31
0.0
  0
LINE
  5
10E
330
1F
100
AcDbEntity
  8
0
  6
Continuous
 62
     7
370
    25
100
AcDbLine
 10
1744.9821647906
 20
-764.5122835746
 30
0.0
 11
1744.9821647906
 21
-771.5798481823
 31
0.0
  0
LWPOLYLINE
  5
10F
330
1F
100
AcDbEntity
  8
0
  6
Continuous
 62
     7
370
    25
100
AcDbPolyline
 90
      241
 70
   128
 43
0.0
 10
956.1334825652
 20
-1258.7202592919
 10
956.2722037999
 20
-1246.5634134138
 10
956.6882724314
 20
-1234.5750633591
 10
957.381403307
 20
-1222.763425344
 10
958.3511213894
 20
-1211.1365944751
 10
959.5967620824
 20
-1199.7025392017
 10
961.1174716859
 20
-1188.469095854
 10
962.9122079817
 20
-1177.4439632729
 10
964.9797409471
 20
-1166.6346975337
 10
967.3186535982
 20
-1156.0487067672
 10
969.9273429612
 20
-1145.6932460826
 10
972.8040211707
 20
-1135.5754125954
 10
975.9467166951
 20
-1125.7021405632
 10
979.353275688
 20
-1116.0801966337
 10
983.0213634638
 20
-1106.7161752065
 10
986.9484660986
 20
-1097.6164939141
 10
991.1318921523
 20
-1088.7873892235
 10
995.5687745137
 20
-1080.2349121622
 10
1000.2560723652
 20
-1071.9649241706
 10
1005.190573267
 20
-1063.9830930855
 10
1010.3688953586
 20
-1056.2948892551
 10
1015.7874896769
 20
-1048.9055817904
 10
1021.4426425878
 20
-1041.8202349536
 10
1027.3304783322
 20
-1035.0437046874
 10
1033.4469616814
 20
-1028.5806352873
 10
1039.7879007032
 20
-1022.4354562181
 10
1046.3489496349
 20
-1016.6123790786
 10
1053.1256118613
 20
-1011.115394715
 10
1060.1132429964
 20
-1005.9482704859
 10
1067.3070540671
 20
-1001.1145476801
 10
1074.7021147945
 20
-996.6175390897
 10
1082.2933569734
 20
-992.4603267398
 10
1090.0755779455
 20
-988.645759776
 10
1098.0434441655
 20
-985.1764525121
 10
1106.1914948557
 20
-982.0547826379
 10
1114.5141457492
 20
-979.2828895901
 10
1123.0056929169
 20
-976.8626730857
 10
1131.6603166764
 20
-974.7957918201
 10
1140.472085581
 20
-973.0836623306
 10
1149.4349604844
 20
-971.7274580251
 10
1158.5427986798
 20
-970.7281083784
 10
1167.78935811
 20
-970.0862982948
 10
1177.1683016448
 20
-969.8024676389
 10
1186.673201425
 20
-969.876810934
 10
1196.297543267
 20
-970.3092772289
 10
1206.0347311276
 20
-971.0995701329
 10
1215.8780916247
 20
-972.2471480187
 10
1225.8208786107
 20
-973.7512243936
 10
1235.856277796
 20
-975.610768439
 10
1245.9774114193
 20
-977.8245057161
 10
1256.1773429612
 20
-980.3909190401
 10
1266.4490818981
 20
-983.3082495194
 10
1276.7855884932
 20
-986.5744977614
 10
1287.1797786212
 20
-990.1874252428
 10
1297.6245286234
 20
-994.1445558435
 10
1308.1126801899
 20
-998.4431775439
 10
1318.6370452654
 20
-1003.0803442834
 10
1329.190410976
 20
-1008.0528779796
 10
1339.7655445718
 20
-1013.3573707061
 10
1350.3551983846
 20
-1018.9901870288
 10
1360.9521147945
 20
-1024.9474664966
 10
1371.5490312044
 20
-1031.2251262877
 10
1382.1386850172
 20
-1037.8188640077
 10
1392.713818613
 20
-1044.7241606382
 10
1403.2671843235
 20
-1051.9362836338
 10
1413.7915493991
 20
-1059.4502901655
 10
1424.2797009656
 20
-1067.2610305088
 10
1434.7244509678
 20
-1075.3631515722
 10
1445.1186410958
 20
-1083.7511005668
 10
1455.4551476909
 20
-1092.4191288112
 10
1465.7268866278
 20
-1101.3612956719
 10
1475.9268181697
 20
-1110.5714726344
 10
1486.047951793
 20
-1120.0433475035
 10
1496.0833509783
 20
-1129.7704287293
 10
1506.0261379642
 20
-1139.7460498561
 10
1515.8694984613
 20
-1149.9633740916
 10
1525.606686322
 20
-1160.415398992
 10
1535.231028164
 20
-1171.0949612616
 10
1544.7359279441
 20
-1181.994741662
 10
1554.114871479
 20
-1193.1072700279
 10
1563.3614309091
 20
-1204.4249303877
 10
1572.4692691046
 20
-1215.9399661821
 10
1581.432144008
 20
-1227.6444855809
 10
1590.2439129125
 20
-1239.5304668912
 10
1598.8985366721
 20
-1251.589764055
 10
1607.3900838397
 20
-1263.8141122324
 10
1615.7127347333
 20
-1276.1951334659
 10
1623.8607854235
 20
-1288.7243424219
 10
1631.8286516434
 20
-1301.3931522064
 10
1639.6108726156
 20
-1314.1928802501
 10
1647.2021147945
 20
-1327.1147542586
 10
1654.5971755219
 20
-1340.1499182251
 10
1661.7909865925
 20
-1353.2894384993
 10
1668.7786177277
 20
-1366.5243099102
 10
1675.555279954
 20
-1379.8454619382
 10
1682.1163288857
 20
-1393.243764931
 10
1688.4572679076
 20
-1406.7100363611
 10
1694.5737512568
 20
-1420.2350471185
 10
1700.4615870011
 20
-1433.8095278367
 10
1706.1167399121
 20
-1447.4241752444
 10
1711.5353342303
 20
-1461.0696585426
 10
1716.713656322
 20
-1474.7366257984
 10
1721.6481572238
 20
-1488.4157103553
 10
1726.3354550753
 20
-1502.097537252
 10
1730.7723374366
 20
-1515.7727296477
 10
1734.9557634903
 20
-1529.4319152486
 10
1738.8828661251
 20
-1543.0657327313
 10
1742.550953901
 20
-1556.6648381583
 10
1745.9575128938
 20
-1570.219911382
 10
1749.1002084183
 20
-1583.7216624323
 10
1751.9768866278
 20
-1597.1608378834
 10
1754.5855759908
 20
-1610.5282271958
 10
1756.9244886419
 20
-1623.8146690287
 10
1758.9920216073
 20
-1637.0110575183
 10
1760.786757903
 20
-1650.1083485193
 10
1762.3074675066
 20
-1663.0975658026
 10
1763.5531081996
 20
-1675.9698072075
 10
1764.522826282
 20
-1688.7162507427
 10
1765.2159571576
 20
-1701.3281606325
 10
1765.6320257891
 20
-1713.796893304
 10
1765.7707470238
 20
-1726.1139033104
 10
1765.6320257891
 20
-1738.2707491884
 10
1765.2159571576
 20
-1750.2590992432
 10
1764.522826282
 20
-1762.0707372583
 10
1763.5531081996
 20
-1773.6975681272
 10
1762.3074675066
 20
-1785.1316234006
 10
1760.786757903
 20
-1796.3650667483
 10
1758.9920216073
 20
-1807.3901993294
 10
1756.9244886419
 20
-1818.1994650686
 10
1754.5855759908
 20
-1828.7854558351
 10
1751.9768866278
 20
-1839.1409165197
 10
1749.1002084183
 20
-1849.2587500069
 10
1745.9575128938
 20
-1859.132022039
 10
1742.550953901
 20
-1868.7539659686
 10
1738.8828661251
 20
-1878.1179873958
 10
1734.9557634903
 20
-1887.2176686882
 10
1730.7723374366
 20
-1896.0467733788
 10
1726.3354550753
 20
-1904.5992504401
 10
1721.6481572238
 20
-1912.8692384317
 10
1716.713656322
 20
-1920.8510695168
 10
1711.5353342303
 20
-1928.5392733471
 10
1706.1167399121
 20
-1935.9285808119
 10
1700.4615870011
 20
-1943.0139276487
 10
1694.5737512568
 20
-1949.7904579149
 10
1688.4572679076
 20
-1956.253527315
 10
1682.1163288857
 20
-1962.3987063842
 10
1675.555279954
 20
-1968.2217835237
 10
1668.7786177277
 20
-1973.7187678873
 10
1661.7909865925
 20
-1978.8858921164
 10
1654.5971755219
 20
-1983.7196149222
 10
1647.2021147945
 20
-1988.2166235126
 10
1639.6108726156
 20
-1992.3738358625
 10
1631.8286516434
 20
-1996.1884028263
 10
1623.8607854235
 20
-1999.6577100902
 10
1615.7127347333
 20
-2002.7793799643
 10
1607.3900838397
 20
-2005.5512730122
 10
1598.8985366721
 20
-2007.9714895166
 10
1590.2439129125
 20
-2010.0383707822
 10
1581.4321440079
 20
-2011.7505002717
 10
1572.4692691046
 20
-2013.1067045772
 10
1563.3614309091
 20
-2014.1060542239
 10
1554.114871479
 20
-2014.7478643075
 10
1544.7359279441
 20
-2015.0316949634
 10
1535.2310281639
 20
-2014.9573516683
 10
1525.606686322
 20
-2014.5248853733
 10
1515.8694984613
 20
-2013.7345924694
 10
1506.0261379642
 20
-2012.5870145836
 10
1496.0833509783
 20
-2011.0829382087
 10
1486.047951793
 20
-2009.2233941633
 10
1475.9268181697
 20
-2007.0096568862
 10
1465.7268866278
 20
-2004.4432435622
 10
1455.4551476909
 20
-2001.5259130829
 10
1445.1186410958
 20
-1998.2596648409
 10
1434.7244509678
 20
-1994.6467373595
 10
1424.2797009656
 20
-1990.6896067588
 10
1413.7915493991
 20
-1986.3909850583
 10
1403.2671843235
 20
-1981.7538183188
 10
1392.713818613
 20
-1976.7812846227
 10
1382.1386850172
 20
-1971.4767918961
 10
1371.5490312044
 20
-1965.8439755735
 10
1360.9521147945
 20
-1959.8866961057
 10
1350.3551983845
 20
-1953.6090363146
 10
1339.7655445718
 20
-1947.0152985946
 10
1329.190410976
 20
-1940.1100019641
 10
1318.6370452654
 20
-1932.8978789685
 10
1308.1126801899
 20
-1925.3838724368
 10
1297.6245286234
 20
-1917.5731320935
 10
1287.1797786212
 20
-1909.4710110301
 10
1276.7855884932
 20
-1901.0830620355
 10
1266.4490818981
 20
-1892.4150337911
 10
1256.1773429612
 20
-1883.4728669304
 10
1245.9774114193
 20
-1874.2626899678
 10
1235.856277796
 20
-1864.7908150988
 10
1225.8208786107
 20
-1855.063733873
 10
1215.8780916247
 20
-1845.0881127462
 10
1206.0347311276
 20
-1834.8707885107
 10
1196.297543267
 20
-1824.4187636103
 10
1186.673201425
 20
-1813.7392013406
 10
1177.1683016448
 20
-1802.8394209403
 10
1167.78935811
 20
-1791.7268925744
 10
1158.5427986798
 20
-1780.4092322146
 10
1149.4349604844
 20
-1768.8941964202
 10
1140.472085581
 20
-1757.1896770213
 10
1131.6603166764
 20
-1745.3036957111
 10
1123.0056929169
 20
-1733.2443985473
 10
1114.5141457492
 20
-1721.0200503699
 10
1106.1914948557
 20
-1708.6390291364
 10
1098.0434441655
 20
-1696.1098201804
 10
1090.0755779455
 20
-1683.4410103959
 10
1082.2933569734
 20
-1670.6412823522
 10
1074.7021147945
 20
-1657.7194083436
 10
1067.3070540671
 20
-1644.6842443771
 10
1060.1132429964
 20
-1631.544724103
 10
1053.1256118613
 20
-1618.309852692
 10
1046.3489496349
 20
-1604.9887006641
 10
1039.7879007032
 20
-1591.5903976713
 10
1033.4469616814
 20
-1578.1241262412
 10
1027.3304783322
 20
-1564.5991154837
 10
1021.4426425878
 20
-1551.0246347656
 10
1015.7874896769
 20
-1537.4099873579
 10
1010.3688953586
 20
-1523.7645040597
 10
1005.190573267
 20
-1510.0975368039
 10
1000.2560723652
 20
-1496.418452247
 10
995.5687745137
 20
-1482.7366253503
 10
991.1318921523
 20
-1469.0614329546
 10
986.9484660986
 20
-1455.4022473537
 10
983.0213634638
 20
-1441.768429871
 10
979.353275688
 20
-1428.169324444
 10
975.9467166951
 20
-1414.6142512203
 10
972.8040211707
 20
-1401.11250017
 10
969.9273429612
 20
-1387.6733247189
 10
967.3186535982
 20
-1374.3059354065
 10
964.9797409471
 20
-1361.0194935736
 10
962.9122079817
 20
-1347.823105084
 10
961.1174716859
 20
-1334.725814083
 10
959.5967620824
 20
-1321.7365967997
 10
958.3511213894
 20
-1308.8643553948
 10
957.381403307
 20
-1296.1179118596
 10
956.6882724314
 20
-1283.5060019697
 10
956.2722037999
 20
-1271.0372692983
 10
956.1334825652
 20
-1258.7202592919
  0
SPLINE
  5
110
330
1F
100
AcDbEntity
  8
0
  6
Continuous
 62
     7
370
    25
100
AcDbSpline
210
0.0
220
0.0
230
1.0
 70
     8
 71
     3
 72
    13
 73
     9
 74
     0
 42
0.00000001
 43
0.00000001
 40
0.0
 40
0.0
 40
0.0
 40
0.0
 40
0.1938685323260144
 40
0.3877294020231254
 40
0.5817720320535057
 40
0.7759629313819644
 40
0.9700916894009632
 40
1.0
 40
1.0
 40
1.0
 40
1.0
 10
1345.877275997926
 20
-1010.263560293128
 30
0.0
 10
1345.08733468906
 20
-1010.325442242657
 30
0.0
 10
1343.507483293658
 20
-1010.449203695838
 30
0.0
 10
1341.240897059655
 20
-1010.078708122631
 30
0.0
 10
1339.352818467974
 20
-1009.34161348192
 30
0.0
 10
1338.138092960865
 20
-1008.281911148933
 30
0.0
 10
1337.600263725345
 20
-1007.382739580731
 30
0.0
 10
1337.723959196987
 20
-1006.886529192637
 30
0.0
 10
1337.740472190164
 20
-1006.820286519042
 30
0.0
  0
SPLINE
  5
111
330
1F
100
AcDbEntity
  8
0
  6
Continuous
 62
     7
370
    25
100
AcDbSpline
210
0.0
220
0.0
230
1.0
 70
     8
 71
     3
 72
    12
 73
     8
 74
     0
 42
0.00000001
 43
0.00000001
 40
0.0
 40
0.0
 40
0.0
 40
0.0
 40
0.1282272491935399
 40
0.3688530432505641
 40
0.6093089569678803
 40
0.849795538606653
 40
1.0
 40
1.0
 40
1.0
 40
1.0
 10
1351.589605499534
 20
-1006.216301626569
 30
0.0
 10
1351.606227584697
 20
-1006.448198047308
 30
0.0
 10
1351.654041966867
 20
-1007.115261413685
 30
0.0
 10
1350.867129239114
 20
-1008.202763526928
 30
0.0
 10
1349.383261412927
 20
-1009.283200323703
 30
0.0
 10
1347.593075390196
 20
-1009.972878925883
 30
0.0
 10
1346.353746446407
 20
-1010.182839270588
 30
0.0
 10
1345.877275997926
 20
-1010.263560293128
 30
0.0
  0
SPLINE
  5
112
330
1F
100
AcDbEntity
  8
0
  6
Continuous
 62
     7
370
    25
100
AcDbSpline
210
0.0
220
0.0
230
1.0
 70
     8
 71
     3
 72
    12
 73
     8
 74
     0
 42
0.00000001
 43
0.00000001
 40
0.0
 40
0.0
 40
0.0
 40
0.0
 40
0.2412971924838293
 40
0.4825841219196844
 40
0.7240808402960656
 40
0.9655674110452719
 40
1.0
 40
1.0
 40
1.0
 40
1.0
 10
1392.99668888374
 20
-1039.333130391841
 30
0.0
 10
1392.234160473237
 20
-1039.17833624004
 30
0.0
 10
1390.709136084708
 20
-1038.868754520268
 30
0.0
 10
1388.832529570465
 20
-1037.853370392389
 30
0.0
 10
1387.625475565735
 20
-1036.571097456057
 30
0.0
 10
1387.094348796487
 20
-1035.516593900874
 30
0.0
 10
1387.219167522982
 20
-1034.971460838778
 30
0.0
 10
1387.234743940031
 20
-1034.903432425409
 30
0.0
  0
SPLINE
  5
113
330
1F
100
AcDbEntity
  8
0
  6
Continuous
 62
     7
370
    25
100
AcDbSpline
210
0.0
220
0.0
230
1.0
 70
     8
 71
     3
 72
    13
 73
     9
 74
     0
 42
0.00000001
 43
0.00000001
 40
0.0
 40
0.0
 40
0.0
 40
0.0
 40
0.1057539584025836
 40
0.2998344619621474
 40
0.4934147888388862
 40
0.6865551966071294
 40
0.8795791729278142
 40
0.9999999999999999
 40
0.9999999999999999
 40
0.9999999999999999
 40
0.9999999999999999
 10
1401.087054474126
 20
-1035.278169589579
 30
0.0
 10
1401.102684436316
 20
-1035.547446670292
 30
0.0
 10
1401.146998629132
 20
-1036.310903186096
 30
0.0
 10
1400.347639286346
 20
-1037.480863695419
 30
0.0
 10
1398.851139602418
 20
-1038.590091012661
 30
0.0
 10
1396.7974832692
 20
-1039.289729237301
 30
0.0
 10
1394.746888486804
 20
-1039.507823976895
 30
0.0
 10
1393.482462517195
 20
-1039.381617168666
 30
0.0
 10
1392.99668888374
 20
-1039.333130391841
 30
0.0
  0
LWPOLYLINE
  5
114
330
1F
100
AcDbEntity
  8
0
  6
Continuous
 62
     7
370
    25
100
AcDbPolyline
 90
      238
 70
   128
 43
0.0
 10
1007.3987242012
 20
-1288.3150533455
 10
1007.5229645375
 20
-1277.56425201
 10
1007.8955982292
 20
-1266.9644512785
 10
1008.5163633858
 20
-1256.5231007915
 10
1009.3848237276
 20
-1246.2475388289
 10
1010.5003688924
 20
-1236.1449871532
 10
1011.8622148647
 20
-1226.2225459332
 10
1013.4694045261
 20
-1216.4871887548
 10
1015.3208083284
 20
-1206.9457577191
 10
1017.4151250877
 20
-1197.6049586344
 10
1019.7508828981
 20
-1188.4713563026
 10
1022.326440167
 20
-1179.5513699061
 10
1025.1399867684
 20
-1170.8512684959
 10
1028.189545315
 20
-1162.3771665855
 10
1031.4729725481
 20
-1154.1350198541
 10
1034.9879608441
 20
-1146.1306209606
 10
1038.7320398358
 20
-1138.3695954723
 10
1042.7025781491
 20
-1130.8573979115
 10
1046.896785252
 20
-1123.5993079218
 10
1051.311713416
 20
-1116.6004265575
 10
1055.9442597877
 20
-1109.8656726988
 10
1060.7911685698
 20
-1103.3997795947
 10
1065.8490333087
 20
-1097.2072915358
 10
1071.1142992893
 20
-1091.2925606617
 10
1076.5832660327
 20
-1085.6597439011
 10
1082.2520898972
 20
-1080.312800051
 10
1088.1167867798
 20
-1075.2554869943
 10
1094.1732349158
 20
-1070.4913590585
 10
1100.4171777763
 20
-1066.0237645177
 10
1106.8442270589
 20
-1061.8558432399
 10
1113.4498657725
 20
-1057.9905244795
 10
1120.2294514117
 20
-1054.4305248193
 10
1127.1782192195
 20
-1051.1783462606
 10
1134.291285536
 20
-1048.2362744654
 10
1141.5636512307
 20
-1045.6063771497
 10
1148.9902052163
 20
-1043.2905026301
 10
1156.5657280401
 20
-1041.2902785253
 10
1164.284895553
 20
-1039.6071106117
 10
1172.142282651
 20
-1038.2421818356
 10
1180.1323670878
 20
-1037.1964514819
 10
1188.2495333565
 20
-1036.4706544998
 10
1196.4880766356
 20
-1036.0653009864
 10
1204.8422067991
 20
-1035.9806758278
 10
1213.3060524849
 20
-1036.2168384996
 10
1221.8736652221
 20
-1036.7736230242
 10
1230.5390236115
 20
-1037.6506380883
 10
1239.2960375569
 20
-1038.8472673174
 10
1248.138552546
 20
-1040.3626697091
 10
1257.0603539755
 20
-1042.1957802242
 10
1266.0551715189
 20
-1044.3453105354
 10
1275.1166835331
 20
-1046.8097499323
 10
1284.2385215016
 20
-1049.5873663836
 10
1293.4142745103
 20
-1052.6762077541
 10
1302.6374937531
 20
-1056.0741031768
 10
1311.901697064
 20
-1059.7786645787
 10
1321.2003734732
 20
-1063.787288359
 10
1330.5269877829
 20
-1068.0971572187
 10
1339.8749851601
 20
-1072.7052421413
 10
1349.2377957436
 20
-1077.608304521
 10
1358.6088392616
 20
-1082.8028984392
 10
1367.9815296559
 20
-1088.2853730859
 10
1377.3492797108
 20
-1094.0518753261
 10
1386.7055056828
 20
-1100.0983524074
 10
1396.0436319277
 20
-1106.4205548084
 10
1405.3570955219
 20
-1113.0140392253
 10
1414.6393508749
 20
-1119.8741716949
 10
1423.8838743297
 20
-1126.9961308509
 10
1433.0841687477
 20
-1134.3749113131
 10
1442.2337680748
 20
-1142.0053272047
 10
1451.3262418858
 20
-1149.882015797
 10
1460.3551999041
 20
-1157.9994412786
 10
1469.3142964924
 20
-1166.3518986462
 10
1478.1972351127
 20
-1174.9335177134
 10
1486.9977727516
 20
-1183.738267237
 10
1495.7097243078
 20
-1192.7599591558
 10
1504.3269669393
 20
-1201.9922529391
 10
1512.8434443664
 20
-1211.4286600435
 10
1521.2531711279
 20
-1221.0625484725
 10
1529.5502367883
 20
-1230.8871474381
 10
1537.7288100911
 20
-1240.8955521191
 10
1545.7831430576
 20
-1251.0807285138
 10
1553.7075750263
 20
-1261.4355183838
 10
1561.4965366313
 20
-1271.9526442847
 10
1569.1445537165
 20
-1282.6247146807
 10
1576.6462511832
 20
-1293.4442291397
 10
1583.9963567672
 20
-1304.4035836043
 10
1591.1897047447
 20
-1315.4950757364
 10
1598.2212395626
 20
-1326.7109103302
 10
1605.0860193917
 20
-1338.043204791
 10
1611.7792195995
 20
-1349.4839946749
 10
1618.2961361416
 20
-1361.0252392862
 10
1624.6321888673
 20
-1372.658827329
 10
1630.7829247387
 20
-1384.3765826073
 10
1636.7440209604
 20
-1396.1702697717
 10
1642.5112880175
 20
-1408.0316001072
 10
1648.0806726199
 20
-1419.9522373583
 10
1653.4482605516
 20
-1431.9238035884
 10
1658.6102794207
 20
-1443.9378850671
 10
1663.5631013116
 20
-1455.9860381843
 10
1668.3032453341
 20
-1468.0597953838
 10
1672.82738007
 20
-1480.1506711145
 10
1677.1323259147
 20
-1492.2501677946
 10
1681.2150573113
 20
-1504.3497817831
 10
1685.0727048776
 20
-1516.4410093566
 10
1688.7025574223
 20
-1528.5153526858
 10
1692.1020638506
 20
-1540.5643258079
 10
1695.2688349573
 20
-1552.5794605904
 10
1698.2006451056
 20
-1564.5523126828
 10
1700.8954337915
 20
-1576.474467451
 10
1703.351307092
 20
-1588.3375458919
 10
1705.5665389962
 20
-1600.1332105215
 10
1707.5395726179
 20
-1611.8531712349
 10
1709.2690212906
 20
-1623.4891911327
 10
1710.7536695412
 20
-1635.0330923099
 10
1711.992473945
 20
-1646.4767616033
 10
1712.9845638584
 20
-1657.8121562938
 10
1713.7292420314
 20
-1669.0313097585
 10
1714.2259850969
 20
-1680.1263370701
 10
1714.4744439392
 20
-1691.0894405383
 10
1714.4744439392
 20
-1701.9129151902
 10
1714.2259850969
 20
-1712.5891541851
 10
1713.7292420314
 20
-1723.1106541612
 10
1712.9845638584
 20
-1733.4700205086
 10
1711.992473945
 20
-1743.6599725664
 10
1710.7536695412
 20
-1753.6733487398
 10
1709.2690212906
 20
-1763.5031115333
 10
1707.5395726179
 20
-1773.1423524963
 10
1705.5665389962
 20
-1782.5842970789
 10
1703.351307092
 20
-1791.8223093932
 10
1700.8954337915
 20
-1800.8498968764
 10
1698.2006451056
 20
-1809.6607148545
 10
1695.2688349573
 20
-1818.2485710013
 10
1692.1020638506
 20
-1826.6074296901
 10
1688.7025574223
 20
-1834.7314162357
 10
1685.0727048776
 20
-1842.6148210235
 10
1681.2150573113
 20
-1850.2521035218
 10
1677.1323259147
 20
-1857.6378961763
 10
1672.82738007
 20
-1864.7670081817
 10
1668.3032453341
 20
-1871.6344291307
 10
1663.5631013116
 20
-1878.2353325348
 10
1658.6102794207
 20
-1884.5650792165
 10
1653.4482605516
 20
-1890.6192205698
 10
1648.0806726199
 20
-1896.3935016869
 10
1642.5112880175
 20
-1901.8838643483
 10
1636.7440209604
 20
-1907.0864498751
 10
1630.7829247387
 20
-1911.9976018408
 10
1624.6321888673
 20
-1916.6138686414
 10
1618.2961361416
 20
-1920.9320059208
 10
1611.7792195995
 20
-1924.9489788513
 10
1605.0860193917
 20
-1928.6619642661
 10
1598.2212395626
 20
-1932.068352644
 10
1591.1897047447
 20
-1935.1657499428
 10
1583.9963567672
 20
-1937.9519792826
 10
1576.6462511832
 20
-1940.4250824748
 10
1569.1445537165
 20
-1942.5833213992
 10
1561.4965366313
 20
-1944.425179225
 10
1553.7075750263
 20
-1945.9493614769
 10
1545.7831430576
 20
-1947.1547969454
 10
1537.7288100911
 20
-1948.0406384389
 10
1529.5502367883
 20
-1948.6062633797
 10
1521.2531711279
 20
-1948.8512742411
 10
1512.8434443664
 20
-1948.7754988272
 10
1504.3269669393
 20
-1948.3789903938
 10
1495.7097243078
 20
-1947.6620276106
 10
1486.9977727515
 20
-1946.625114366
 10
1478.1972351127
 20
-1945.2689794123
 10
1469.3142964924
 20
-1943.5945758541
 10
1460.3551999041
 20
-1941.603080478
 10
1451.3262418858
 20
-1939.2958929259
 10
1442.2337680748
 20
-1936.6746347111
 10
1433.0841687477
 20
-1933.7411480786
 10
1423.8838743297
 20
-1930.4974947106
 10
1414.6393508749
 20
-1926.9459542776
 10
1405.3570955219
 20
-1923.0890228356
 10
1396.0436319277
 20
-1918.9294110728
 10
1386.7055056828
 20
-1914.4700424036
 10
1377.3492797108
 20
-1909.7140509146
 10
1367.9815296559
 20
-1904.6647791616
 10
1358.6088392616
 20
-1899.3257758208
 10
1349.2377957436
 20
-1893.7007931942
 10
1339.87498516
 20
-1887.793784573
 10
1330.5269877829
 20
-1881.6089014587
 10
1321.2003734732
 20
-1875.1504906458
 10
1311.901697064
 20
-1868.4230911666
 10
1302.6374937531
 20
-1861.4314311012
 10
1293.4142745103
 20
-1854.1804242545
 10
1284.2385215016
 20
-1846.6751667029
 10
1275.1166835331
 20
-1838.9209332125
 10
1266.0551715189
 20
-1830.923173532
 10
1257.0603539755
 20
-1822.6875085627
 10
1248.138552546
 20
-1814.2197264079
 10
1239.2960375569
 20
-1805.5257783053
 10
1230.5390236115
 20
-1796.6117744439
 10
1221.8736652221
 20
-1787.48397967
 10
1213.3060524849
 20
-1778.1488090844
 10
1204.842206799
 20
-1768.6128235333
 10
1196.4880766356
 20
-1758.8827249978
 10
1188.2495333564
 20
-1748.9653518832
 10
1180.1323670878
 20
-1738.8676742134
 10
1172.142282651
 20
-1728.5967887319
 10
1164.284895553
 20
-1718.1599139144
 10
1156.5657280401
 20
-1707.5643848953
 10
1148.9902052163
 20
-1696.8176483128
 10
1141.5636512307
 20
-1685.9272570753
 10
1134.291285536
 20
-1674.9008650527
 10
1127.1782192195
 20
-1663.7462216981
 10
1120.2294514117
 20
-1652.4711666003
 10
1113.4498657725
 20
-1641.0836239749
 10
1106.8442270589
 20
-1629.5915970948
 10
1100.4171777762
 20
-1618.0031626653
 10
1094.1732349158
 20
-1606.326465148
 10
1088.1167867797
 20
-1594.5697110365
 10
1082.2520898972
 20
-1582.741163089
 10
1076.5832660327
 20
-1570.849134521
 10
1071.1142992893
 20
-1558.9019831629
 10
1065.8490333087
 20
-1546.9081055859
 10
1060.7911685698
 20
-1534.8759312007
 10
1055.9442597877
 20
-1522.8139163335
 10
1051.311713416
 20
-1510.7305382827
 10
1046.896785252
 20
-1498.6342893608
 10
1042.7025781491
 20
-1486.5336709262
 10
1038.7320398358
 20
-1474.4371874081
 10
1034.9879608441
 20
-1462.3533403298
 10
1031.4729725481
 20
-1450.2906223335
 10
1028.189545315
 20
-1438.2575112117
 10
1025.1399867684
 20
-1426.2624639489
 10
1022.326440167
 20
-1414.3139107779
 10
1019.7508828981
 20
-1402.4202492552
 10
1017.4151250877
 20
-1390.5898383587
 10
1015.3208083284
 20
-1378.8309926133
 10
1013.4694045261
 20
-1367.1519762472
 10
1011.8622148647
 20
-1355.5609973838
 10
1010.5003688925
 20
-1344.0662022728
 10
1009.3848237276
 20
-1332.6756695651
 10
1008.5163633858
 20
-1321.397404635
 10
1007.8955982292
 20
-1310.2393339541
 10
1007.5229645375
 20
-1299.20929952
 10
1007.3987242012
 20
-1288.3150533455
  0
LWPOLYLINE
  5
115
330
1F
100
AcDbEntity
  8
0
  6
Continuous
 62
     7
370
    25
100
AcDbPolyline
 90
       44
 70
   128
 43
0.0
 10
1705.3885978527
 20
-1599.1387241875
 10
1699.380752245
 20
-1593.9984996657
 10
1690.3192402308
 20
-1586.0007399852
 10
1681.3244226875
 20
-1577.7650750158
 10
1672.4026212579
 20
-1569.2972928611
 10
1663.5601062688
 20
-1560.6033447585
 10
1654.8030923234
 20
-1551.6893408971
 10
1646.1377339341
 20
-1542.5615461232
 10
1637.5701211968
 20
-1533.2263755376
 10
1629.106275511
 20
-1523.6903899865
 10
1620.7521453476
 20
-1513.9602914509
 10
1612.5136020684
 20
-1504.0429183364
 10
1604.3964357997
 20
-1493.9452406666
 10
1596.4063513629
 20
-1483.6743551851
 10
1588.548964265
 20
-1473.2374803676
 10
1580.8297967521
 20
-1462.6419513485
 10
1573.2542739282
 20
-1451.895214766
 10
1565.8277199427
 20
-1441.0048235284
 10
1558.5553542479
 20
-1429.9784315059
 10
1551.4422879314
 20
-1418.8237881513
 10
1544.4935201237
 20
-1407.5487330535
 10
1537.7139344844
 20
-1396.1611904281
 10
1531.1082957708
 20
-1384.669163548
 10
1524.6812464882
 20
-1373.0807291185
 10
1518.4373036277
 20
-1361.4040316012
 10
1512.3808554917
 20
-1349.6472774897
 10
1506.5161586091
 20
-1337.8187295422
 10
1500.8473347446
 20
-1325.9267009742
 10
1495.3783680012
 20
-1313.9795496161
 10
1490.1131020207
 20
-1301.985672039
 10
1485.0552372817
 20
-1289.9534976539
 10
1480.2083284997
 20
-1277.8914827867
 10
1475.5757821279
 20
-1265.8081047359
 10
1471.1608539639
 20
-1253.711855814
 10
1466.966646861
 20
-1241.6112373794
 10
1462.9961085478
 20
-1229.5147538613
 10
1459.252029556
 20
-1217.430906783
 10
1455.73704126
 20
-1205.3681887867
 10
1452.4536140269
 20
-1193.3350776649
 10
1449.4040554803
 20
-1181.3400304021
 10
1446.590508879
 20
-1169.3914772311
 10
1444.01495161
 20
-1157.4978157084
 10
1441.6791937996
 20
-1145.6674048119
 10
1440.7797004482
 20
-1140.773004868
  0
LWPOLYLINE
  5
116
330
1F
100
AcDbEntity
  8
0
  6
Continuous
 62
     7
370
    25
100
AcDbPolyline
 90
       28
 70
   128
 43
0.0
 10
1501.9223754135
 20
-750.0228733098
 10
1506.5574256853
 20
-747.5378931929
 10
1514.3396466575
 20
-743.7233262292
 10
1522.3075128774
 20
-740.2540189653
 10
1530.4555635676
 20
-737.1323490911
 10
1538.7782144611
 20
-734.3604560433
 10
1547.2697616288
 20
-731.9402395388
 10
1555.9243853884
 20
-729.8733582733
 10
1564.7361542929
 20
-728.1612287837
 10
1573.6990291963
 20
-726.8050244783
 10
1582.8068673918
 20
-725.8056748316
 10
1592.0534268219
 20
-725.163864748
 10
1601.4323703568
 20
-724.8800340921
 10
1610.9372701369
 20
-724.9543773872
 10
1620.5616119789
 20
-725.3868436821
 10
1630.2987998396
 20
-726.1771365861
 10
1640.1421603367
 20
-727.3247144719
 10
1650.0849473226
 20
-728.8287908468
 10
1660.1203465079
 20
-730.6883348922
 10
1670.2414801312
 20
-732.9020721693
 10
1680.4414116731
 20
-735.4684854932
 10
1690.71315061
 20
-738.3858159725
 10
1701.0496572051
 20
-741.6520642146
 10
1711.4438473331
 20
-745.264991696
 10
1721.8885973353
 20
-749.2221222967
 10
1732.3767489018
 20
-753.5207439971
 10
1742.9011139774
 20
-758.1579107366
 10
1748.8199159034
 20
-760.9071145573
  0
LWPOLYLINE
  5
117
330
1F
100
AcDbEntity
  8
0
  6
Continuous
 62
     7
370
    25
100
AcDbPolyline
 90
        6
 70
   128
 43
0.0
 10
1758.9821647906
 20
-765.8630834115
 10
1764.0296132837
 20
-768.4349371593
 10
1774.6192670965
 20
-774.067753482
 10
1785.2161835064
 20
-780.0250329497
 10
1795.8130999163
 20
-786.3026927409
 10
1800.3642010785
 20
-789.0971878848
  0
LWPOLYLINE
  5
118
330
1F
100
AcDbEntity
  8
0
  6
Continuous
 62
     7
370
    25
100
AcDbPolyline
 90
       89
 70
   128
 43
0.0
 10
1808.4796394737
 20
-794.2272604622
 10
1816.9778873249
 20
-799.8017270914
 10
1827.5312530355
 20
-807.013850087
 10
1838.055618111
 20
-814.5278566187
 10
1848.5437696775
 20
-822.338596962
 10
1858.9885196797
 20
-830.4407180254
 10
1869.3827098077
 20
-838.8286670199
 10
1879.7192164028
 20
-847.4966952644
 10
1889.9909553397
 20
-856.4388621251
 10
1900.1908868816
 20
-865.6490390876
 10
1910.3120205049
 20
-875.1209139567
 10
1920.3474196902
 20
-884.8479951825
 10
1930.2902066762
 20
-894.8236163093
 10
1940.1335671733
 20
-905.0409405447
 10
1949.8707550339
 20
-915.4929654452
 10
1959.4950968759
 20
-926.1725277148
 10
1968.9999966561
 20
-937.0723081151
 10
1978.3789401909
 20
-948.1848364811
 10
1987.6254996211
 20
-959.5024968409
 10
1996.7333378165
 20
-971.0175326353
 10
2005.6962127199
 20
-982.7220520341
 10
2014.5079816245
 20
-994.6080333444
 10
2023.162605384
 20
-1006.6673305082
 10
2031.6541525517
 20
-1018.8916786856
 10
2039.9768034452
 20
-1031.2726999191
 10
2048.1248541354
 20
-1043.801908875
 10
2056.0927203554
 20
-1056.4707186596
 10
2063.8749413275
 20
-1069.2704467033
 10
2071.4661835064
 20
-1082.1923207118
 10
2078.8612442338
 20
-1095.2274846783
 10
2086.0550553045
 20
-1108.3670049525
 10
2093.0426864396
 20
-1121.6018763634
 10
2099.8193486659
 20
-1134.9230283914
 10
2106.3803975977
 20
-1148.3213313842
 10
2112.7213366195
 20
-1161.7876028143
 10
2118.8378199687
 20
-1175.3126135717
 10
2124.725655713
 20
-1188.8870942899
 10
2130.380808624
 20
-1202.5017416976
 10
2135.7994029423
 20
-1216.1472249957
 10
2140.9777250339
 20
-1229.8141922516
 10
2145.9122259357
 20
-1243.4932768085
 10
2150.5995237872
 20
-1257.1751037051
 10
2155.0364061486
 20
-1270.8502961008
 10
2159.2198322023
 20
-1284.5094817018
 10
2163.1469348371
 20
-1298.1432991845
 10
2166.8150226129
 20
-1311.7424046115
 10
2170.2215816058
 20
-1325.2974778352
 10
2173.3642771302
 20
-1338.7992288854
 10
2176.2409553397
 20
-1352.2384043366
 10
2178.8496447027
 20
-1365.605793649
 10
2181.1885573538
 20
-1378.8922354819
 10
2183.2560903192
 20
-1392.0886239715
 10
2185.050826615
 20
-1405.1859149725
 10
2186.5715362185
 20
-1418.1751322558
 10
2187.8171769115
 20
-1431.0473736607
 10
2188.7868949939
 20
-1443.7938171959
 10
2189.4800258695
 20
-1456.4057270857
 10
2189.896094501
 20
-1468.8744597572
 10
2190.0348157357
 20
-1481.1914697636
 10
2189.896094501
 20
-1493.3483156416
 10
2189.4800258695
 20
-1505.3366656964
 10
2188.7868949939
 20
-1517.1483037115
 10
2187.8171769115
 20
-1528.7751345804
 10
2186.5715362185
 20
-1540.2091898538
 10
2185.050826615
 20
-1551.4426332015
 10
2183.2560903192
 20
-1562.4677657826
 10
2181.1885573538
 20
-1573.2770315217
 10
2178.8496447027
 20
-1583.8630222883
 10
2176.2409553397
 20
-1594.2184829729
 10
2173.3642771302
 20
-1604.3363164601
 10
2170.2215816058
 20
-1614.2095884922
 10
2166.8150226129
 20
-1623.8315324218
 10
2163.1469348371
 20
-1633.195553849
 10
2159.2198322023
 20
-1642.2952351414
 10
2155.0364061486
 20
-1651.124339832
 10
2150.5995237872
 20
-1659.6768168933
 10
2145.9122259357
 20
-1667.9468048849
 10
2140.9777250339
 20
-1675.92863597
 10
2135.7994029423
 20
-1683.6168398003
 10
2130.380808624
 20
-1691.006147265
 10
2124.725655713
 20
-1698.0914941019
 10
2118.8378199687
 20
-1704.8680243681
 10
2112.7213366195
 20
-1711.3310937682
 10
2106.3803975977
 20
-1717.4762728374
 10
2099.8193486659
 20
-1723.2993499769
 10
2093.0426864396
 20
-1728.7963343404
 10
2086.0550553044
 20
-1733.9634585696
 10
2078.8612442338
 20
-1738.7971813754
 10
2074.3461397285
 20
-1741.5972848759
  0
SPLINE
  5
119
330
1F
100
AcDbEntity
  8
0
  6
Continuous
 62
     7
370
    25
100
AcDbSpline
210
0.0
220
0.0
230
1.0
 70
     8
 71
     3
 72
    12
 73
     8
 74
     0
 42
0.00000001
 43
0.00000001
 40
0.0
 40
0.0
 40
0.0
 40
0.0
 40
0.2399540526643732
 40
0.4799087498884015
 40
0.7197926096913
 40
0.9592888862519433
 40
1.0
 40
1.0
 40
1.0
 40
1.0
 10
1800.358938517362
 20
-804.0887430674834
 30
0.0
 10
1799.593824201593
 20
-803.9294957444479
 30
0.0
 10
1798.063593514821
 20
-803.61100067061
 30
0.0
 10
1796.171132106965
 20
-802.5995764848303
 30
0.0
 10
1794.941915562965
 20
-801.3352420427219
 30
0.0
 10
1794.396100140584
 20
-800.2884702242927
 30
0.0
 10
1794.517939397057
 20
-799.7462485591028
 30
0.0
 10
1794.535641327844
 20
-799.6674695951938
 30
0.0
  0
SPLINE
  5
11A
330
1F
100
AcDbEntity
  8
0
  6
Continuous
 62
     7
370
    25
100
AcDbSpline
210
0.0
220
0.0
230
1.0
 70
     8
 71
     3
 72
    13
 73
     9
 74
     0
 42
0.00000001
 43
0.00000001
 40
0.0
 40
0.0
 40
0.0
 40
0.0
 40
0.1008891168693266
 40
0.2955527393132096
 40
0.4898043090393197
 40
0.6839195559616217
 40
0.8782844533018598
 40
1.0
 40
1.0
 40
1.0
 40
1.0
 10
1808.380075975707
 20
-800.2633629386669
 30
0.0
 10
1808.397964762572
 20
-800.5127669985816
 30
0.0
 10
1808.450369621738
 20
-801.2433914245947
 30
0.0
 10
1807.674205425381
 20
-802.3612817960313
 30
0.0
 10
1806.200486979335
 20
-803.4256066589858
 30
0.0
 10
1804.161782978895
 20
-804.0861160012731
 30
0.0
 10
1802.115331370396
 20
-804.2780919170984
 30
0.0
 10
1800.847248873891
 20
-804.1413856207165
 30
0.0
 10
1800.358938517362
 20
-804.0887430674834
 30
0.0
  0
SPLINE
  5
11B
330
1F
100
AcDbEntity
  8
0
  6
Continuous
 62
     7
370
    25
100
AcDbSpline
210
0.0
220
0.0
230
1.0
 70
     8
 71
     3
 72
    13
 73
     9
 74
     0
 42
0.00000001
 43
0.00000001
 40
0.0
 40
0.0
 40
0.0
 40
0.0
 40
0.1918047921369097
 40
0.3836017218802043
 40
0.5756102448794597
 40
0.7679848974604512
 40
0.9606325180201899
 40
1.0
 40
1.0
 40
1.0
 40
1.0
 10
1753.272588868863
 20
-775.0348747775384
 30
0.0
 10
1752.484844603418
 20
-775.0894419292715
 30
0.0
 10
1750.909388363461
 20
-775.1985739959406
 30
0.0
 10
1748.633427200357
 20
-774.824811588601
 30
0.0
 10
1746.726136902577
 20
-774.0989803803662
 30
0.0
 10
1745.474376570942
 20
-773.0652022027718
 30
0.0
 10
1744.908540595169
 20
-772.170085932179
 30
0.0
 10
1745.02687489914
 20
-771.6686677551832
 30
0.0
 10
1745.046953435098
 20
-771.58358893561
 30
0.0
  0
SPLINE
  5
11C
330
1F
100
AcDbEntity
  8
0
  6
Continuous
 62
     7
370
    25
100
AcDbSpline
210
0.0
220
0.0
230
1.0
 70
     8
 71
     3
 72
    12
 73
     8
 74
     0
 42
0.00000001
 43
0.00000001
 40
0.0
 40
0.0
 40
0.0
 40
0.0
 40
0.1177894554325845
 40
0.3615442019015472
 40
0.6049707157730816
 40
0.8481326735272439
 40
1.0
 40
1.0
 40
1.0
 40
1.0
 10
1758.882555848296
 20
-771.2017617575847
 30
0.0
 10
1758.902859835213
 20
-771.4061760285639
 30
0.0
 10
1758.965181107678
 20
-772.0336073566648
 30
0.0
 10
1758.213996402847
 20
-773.0651418559503
 30
0.0
 10
1756.759856043342
 20
-774.1058258705542
 30
0.0
 10
1754.983962556792
 20
-774.764226797123
 30
0.0
 10
1753.747818997368
 20
-774.9597187345189
 30
0.0
 10
1753.272588868863
 20
-775.0348747775384
 30
0.0
  0
LWPOLYLINE
  5
11D
330
1F
100
AcDbEntity
  8
0
  6
Continuous
 62
     7
370
    25
100
AcDbPolyline
 90
       29
 70
   128
 43
0.0
 10
1399.1358809786
 20
-1025.354675302
 10
1400.1132029048
 20
-1026.0621546319
 10
1400.7933168224
 20
-1026.8774413852
 10
1401.1421189795
 20
-1027.7596536797
 10
1401.1421189795
 20
-1028.6645537071
 10
1400.7933168224
 20
-1029.5467660016
 10
1400.1132029048
 20
-1030.3620527548
 10
1399.1358809786
 20
-1031.0695320848
 10
1397.9103580459
 20
-1031.6337280236
 10
1396.4980869439
 20
-1032.026349431
 10
1394.969884843
 20
-1032.2277086302
 10
1393.4023821775
 20
-1032.2277086302
 10
1391.8741800766
 20
-1032.026349431
 10
1390.4619089746
 20
-1031.6337280236
 10
1389.2363860419
 20
-1031.0695320848
 10
1388.2590641157
 20
-1030.3620527548
 10
1387.5789501981
 20
-1029.5467660016
 10
1387.230148041
 20
-1028.6645537071
 10
1387.230148041
 20
-1027.7596536797
 10
1387.5789501981
 20
-1026.8774413852
 10
1388.2590641157
 20
-1026.0621546319
 10
1389.2363860419
 20
-1025.354675302
 10
1390.4619089746
 20
-1024.7904793632
 10
1391.8741800766
 20
-1024.3978579558
 10
1393.4023821775
 20
-1024.1964987565
 10
1394.969884843
 20
-1024.1964987565
 10
1396.4980869439
 20
-1024.3978579558
 10
1397.9103580459
 20
-1024.7904793632
 10
1399.1358809786
 20
-1025.354675302
  0
LWPOLYLINE
  5
11E
330
1F
100
AcDbEntity
  8
0
  6
Continuous
 62
     7
370
    25
100
AcDbPolyline
 90
       24
 70
   128
 43
0.0
 10
1397.7216674162
 20
-1026.1710834138
 10
1398.5444358604
 20
-1026.7974306636
 10
1399.0439689572
 20
-1027.5286977404
 10
1399.1832186221
 20
-1028.3106499103
 10
1398.9518573443
 20
-1029.0852933581
 10
1398.3670441315
 20
-1029.7951763231
 10
1397.4721519043
 20
-1030.3876500332
 10
1396.3335507254
 20
-1030.8187734237
 10
1395.0356854354
 20
-1031.0565720451
 10
1393.6748127655
 20
-1031.0834094613
 10
1392.3518624162
 20
-1030.8972952642
 10
1391.1649515626
 20
-1030.5120326921
 10
1390.2021079532
 20
-1029.9561949077
 10
1389.5347412936
 20
-1029.2710058566
 10
1389.212347116
 20
-1028.5072828762
 10
1389.2588359217
 20
-1027.7216678062
 10
1389.6707598486
 20
-1026.9724261223
 10
1390.4175683836
 20
-1026.3151256528
 10
1391.443874154
 20
-1025.7985153664
 10
1392.6735607558
 20
-1025.4609098848
 10
1394.0154279593
 20
-1025.3273478621
 10
1395.3699556126
 20
-1025.4077349825
 10
1396.6366845961
 20
-1025.6961093011
 10
1397.7216674162
 20
-1026.1710834138
  0
LWPOLYLINE
  5
11F
330
1F
100
AcDbEntity
  8
0
  6
Continuous
 62
     7
370
    25
100
AcDbPolyline
 90
       29
 70
   128
 43
0.0
 10
1339.7389113589
 20
-1002.495248171
 10
1338.7615894326
 20
-1001.787768841
 10
1338.081475515
 20
-1000.9724820878
 10
1337.7326733579
 20
-1000.0902697933
 10
1337.7326733579
 20
-999.1853697659
 10
1338.081475515
 20
-998.3031574714
 10
1338.7615894326
 20
-997.4878707181
 10
1339.7389113589
 20
-996.7803913882
 10
1340.9644342916
 20
-996.2161954494
 10
1342.3767053935
 20
-995.823574042
 10
1343.9049074945
 20
-995.6222148427
 10
1345.4724101599
 20
-995.6222148427
 10
1347.0006122609
 20
-995.823574042
 10
1348.4128833628
 20
-996.2161954494
 10
1349.6384062955
 20
-996.7803913882
 10
1350.6157282218
 20
-997.4878707181
 10
1351.2958421394
 20
-998.3031574714
 10
1351.6446442964
 20
-999.1853697659
 10
1351.6446442964
 20
-1000.0902697933
 10
1351.2958421394
 20
-1000.9724820878
 10
1350.6157282218
 20
-1001.787768841
 10
1349.6384062955
 20
-1002.495248171
 10
1348.4128833628
 20
-1003.0594441098
 10
1347.0006122609
 20
-1003.4520655172
 10
1345.4724101599
 20
-1003.6534247164
 10
1343.9049074945
 20
-1003.6534247164
 10
1342.3767053935
 20
-1003.4520655172
 10
1340.9644342916
 20
-1003.0594441098
 10
1339.7389113589
 20
-1002.495248171
  0
LWPOLYLINE
  5
120
330
1F
100
AcDbEntity
  8
0
  6
Continuous
 62
     7
370
    25
100
AcDbPolyline
 90
       24
 70
   128
 43
0.0
 10
1341.1531249213
 20
-1001.6788400591
 10
1340.330356477
 20
-1001.0524928093
 10
1339.8308233802
 20
-1000.3212257325
 10
1339.6915737154
 20
-999.5392735626
 10
1339.9229349931
 20
-998.7646301148
 10
1340.5077482059
 20
-998.0547471499
 10
1341.4026404331
 20
-997.4622734398
 10
1342.541241612
 20
-997.0311500492
 10
1343.839106902
 20
-996.7933514279
 10
1345.1999795719
 20
-996.7665140116
 10
1346.5229299213
 20
-996.9526282088
 10
1347.7098407748
 20
-997.3378907808
 10
1348.6726843843
 20
-997.8937285652
 10
1349.3400510439
 20
-998.5789176163
 10
1349.6624452215
 20
-999.3426405967
 10
1349.6159564158
 20
-1000.1282556667
 10
1349.2040324888
 20
-1000.8774973506
 10
1348.4572239538
 20
-1001.5347978202
 10
1347.4309181834
 20
-1002.0514081066
 10
1346.2012315816
 20
-1002.3890135882
 10
1344.8593643781
 20
-1002.5225756109
 10
1343.5048367249
 20
-1002.4421884905
 10
1342.2381077413
 20
-1002.1538141719
 10
1341.1531249213
 20
-1001.6788400591
  0
LWPOLYLINE
  5
121
330
1F
100
AcDbEntity
  8
0
  6
Continuous
 62
     7
370
    25
100
AcDbPolyline
 90
       29
 70
   128
 43
0.0
 10
1796.5298920054
 20
-795.9439958798
 10
1795.5525700791
 20
-795.2365165499
 10
1794.8724561615
 20
-794.4212297966
 10
1794.5236540044
 20
-793.5390175021
 10
1794.5236540044
 20
-792.6341174747
 10
1794.8724561615
 20
-791.7519051803
 10
1795.5525700791
 20
-790.936618427
 10
1796.5298920054
 20
-790.2291390971
 10
1797.7554149381
 20
-789.6649431583
 10
1799.16768604
 20
-789.2723217508
 10
1800.695888141
 20
-789.0709625516
 10
1802.2633908064
 20
-789.0709625516
 10
1803.7915929074
 20
-789.2723217508
 10
1805.2038640093
 20
-789.6649431583
 10
1806.429386942
 20
-790.2291390971
 10
1807.4067088683
 20
-790.936618427
 10
1808.0868227859
 20
-791.7519051803
 10
1808.435624943
 20
-792.6341174747
 10
1808.435624943
 20
-793.5390175021
 10
1808.0868227859
 20
-794.4212297966
 10
1807.4067088683
 20
-795.2365165499
 10
1806.429386942
 20
-795.9439958798
 10
1805.2038640093
 20
-796.5081918186
 10
1803.7915929074
 20
-796.900813226
 10
1802.2633908064
 20
-797.1021724253
 10
1800.695888141
 20
-797.1021724253
 10
1799.16768604
 20
-796.900813226
 10
1797.7554149381
 20
-796.5081918186
 10
1796.5298920054
 20
-795.9439958798
  0
LWPOLYLINE
  5
122
330
1F
100
AcDbEntity
  8
0
  6
Continuous
 62
     7
370
    25
100
AcDbPolyline
 90
       24
 70
   128
 43
0.0
 10
1797.9441055678
 20
-795.127587768
 10
1797.1213371235
 20
-794.5012405182
 10
1796.6218040267
 20
-793.7699734414
 10
1796.4825543619
 20
-792.9880212715
 10
1796.7139156396
 20
-792.2133778237
 10
1797.2987288524
 20
-791.5034948587
 10
1798.1936210796
 20
-790.9110211486
 10
1799.3322222586
 20
-790.4798977581
 10
1800.6300875486
 20
-790.2420991368
 10
1801.9909602184
 20
-790.2152617205
 10
1803.3139105678
 20
-790.4013759176
 10
1804.5008214213
 20
-790.7866384897
 10
1805.4636650308
 20
-791.3424762741
 10
1806.1310316904
 20
-792.0276653252
 10
1806.453425868
 20
-792.7913883056
 10
1806.4069370623
 20
-793.5770033756
 10
1805.9950131353
 20
-794.3262450595
 10
1805.2482046003
 20
-794.983545529
 10
1804.2218988299
 20
-795.5001558154
 10
1802.9922122281
 20
-795.837761297
 10
1801.6503450246
 20
-795.9713233197
 10
1800.2958173714
 20
-795.8909361993
 10
1799.0290883878
 20
-795.6025618807
 10
1797.9441055678
 20
-795.127587768
  0
LWPOLYLINE
  5
123
330
1F
100
AcDbEntity
  8
0
  6
Continuous
 62
     7
370
    25
100
AcDbPolyline
 90
       29
 70
   128
 43
0.0
 10
1756.9319122589
 20
-761.6548551833
 10
1757.9092341852
 20
-762.3623345132
 10
1758.5893481028
 20
-763.1776212665
 10
1758.9381502599
 20
-764.0598335609
 10
1758.9381502599
 20
-764.9647335883
 10
1758.5893481028
 20
-765.8469458828
 10
1757.9092341852
 20
-766.6622326361
 10
1756.9319122589
 20
-767.369711966
 10
1755.7063893263
 20
-767.9339079048
 10
1754.2941182243
 20
-768.3265293122
 10
1752.7659161234
 20
-768.5278885115
 10
1751.1984134579
 20
-768.5278885115
 10
1749.670211357
 20
-768.3265293122
 10
1748.257940255
 20
-767.9339079048
 10
1747.0324173223
 20
-767.369711966
 10
1746.055095396
 20
-766.6622326361
 10
1745.3749814785
 20
-765.8469458828
 10
1745.0261793214
 20
-764.9647335883
 10
1745.0261793214
 20
-764.0598335609
 10
1745.3749814785
 20
-763.1776212665
 10
1746.055095396
 20
-762.3623345132
 10
1747.0324173223
 20
-761.6548551833
 10
1748.257940255
 20
-761.0906592445
 10
1749.670211357
 20
-760.698037837
 10
1751.1984134579
 20
-760.4966786378
 10
1752.7659161234
 20
-760.4966786378
 10
1754.2941182243
 20
-760.698037837
 10
1755.7063893263
 20
-761.0906592445
 10
1756.9319122589
 20
-761.6548551833
  0
LWPOLYLINE
  5
124
330
1F
100
AcDbEntity
  8
0
  6
Continuous
 62
     7
370
    25
100
AcDbPolyline
 90
       24
 70
   128
 43
0.0
 10
1755.5176986966
 20
-762.4712632951
 10
1756.3404671408
 20
-763.0976105449
 10
1756.8400002376
 20
-763.8288776217
 10
1756.9792499025
 20
-764.6108297916
 10
1756.7478886247
 20
-765.3854732394
 10
1756.1630754119
 20
-766.0953562043
 10
1755.2681831847
 20
-766.6878299144
 10
1754.1295820058
 20
-767.118953305
 10
1752.8317167158
 20
-767.3567519263
 10
1751.4708440459
 20
-767.3835893426
 10
1750.1478936966
 20
-767.1974751454
 10
1748.960982843
 20
-766.8122125734
 10
1747.9981392336
 20
-766.256374789
 10
1747.330772574
 20
-765.5711857379
 10
1747.0083783964
 20
-764.8074627575
 10
1747.0548672021
 20
-764.0218476875
 10
1747.466791129
 20
-763.2726060036
 10
1748.213599664
 20
-762.615305534
 10
1749.2399054344
 20
-762.0986952476
 10
1750.4695920362
 20
-761.761089766
 10
1751.8114592397
 20
-761.6275277433
 10
1753.165986893
 20
-761.7079148638
 10
1754.4327158765
 20
-761.9962891823
 10
1755.5176986966
 20
-762.4712632951
  0
LWPOLYLINE
  5
125
330
1F
100
AcDbEntity
  8
0
  6
Continuous
 62
     1
370
    25
100
AcDbPolyline
 90
      122
 70
   128
 43
0.0
 10
1269.9473900438
 20
-881.5955001407
 10
1277.542008376
 20
-877.4371274093
 10
1285.3514161463
 20
-873.6092344474
 10
1293.3471177067
 20
-870.1278073328
 10
1301.5236332028
 20
-866.9952320617
 10
1309.8753588593
 20
-864.2136555447
 10
1318.3965708206
 20
-861.7849841354
 10
1327.0814290736
 20
-859.710882324
 10
1335.9239814504
 20
-857.992771596
 10
1344.9181677071
 20
-856.631829459
 10
1354.0578236779
 20
-855.6289886345
 10
1363.3366854991
 20
-854.9849364196
 10
1372.7483939022
 20
-854.7001142155
 10
1382.2864985724
 20
-854.7747172252
 10
1391.9444625693
 20
-855.2086943194
 10
1401.7156668068
 20
-856.001748072
 10
1411.5934145894
 20
-857.1533349634
 10
1421.5709362024
 20
-858.6626657537
 10
1431.6413935508
 20
-860.5287060227
 10
1441.7978848462
 20
-862.7501768799
 10
1452.0334493367
 20
-865.3255558399
 10
1462.3410720777
 20
-868.2530778667
 10
1472.7136887395
 20
-871.530736583
 10
1483.1441904487
 20
-875.1562856451
 10
1493.6254286606
 20
-879.1272402829
 10
1504.1502200578
 20
-883.4408790023
 10
1514.7113514743
 20
-888.094245451
 10
1525.301584838
 20
-893.0841504438
 10
1535.913662132
 20
-898.4071741494
 10
1546.5403103685
 20
-904.059668433
 10
1557.1742465738
 20
-910.0377593574
 10
1567.808182779
 20
-916.3373498377
 10
1578.4348310155
 20
-922.9541224494
 10
1589.0469083095
 20
-929.8835423869
 10
1599.6371416732
 20
-937.1208605719
 10
1610.1982730897
 20
-944.6611169082
 10
1620.7230644869
 20
-952.4991436806
 10
1631.2043026988
 20
-960.629569097
 10
1641.634804408
 20
-969.0468209702
 10
1652.0074210698
 20
-977.745130536
 10
1662.3150438108
 20
-986.7185364076
 10
1672.5506083013
 20
-995.9608886608
 10
1682.7070995967
 20
-1005.4658530491
 10
1692.7775569451
 20
-1015.2269153446
 10
1702.7550785581
 20
-1025.2373858029
 10
1712.6328263407
 20
-1035.4904037475
 10
1722.4040305782
 20
-1045.978942272
 10
1732.0619945751
 20
-1056.6958130561
 10
1741.6000992453
 20
-1067.6336712919
 10
1751.0118076484
 20
-1078.7850207177
 10
1760.2906694696
 20
-1090.1422187555
 10
1769.4303254404
 20
-1101.6974817493
 10
1778.4245116971
 20
-1113.4428902988
 10
1787.2670640739
 20
-1125.3703946879
 10
1795.9519223269
 20
-1137.4718204007
 10
1804.4731342882
 20
-1149.7388737246
 10
1812.8248599447
 20
-1162.163147434
 10
1821.0013754408
 20
-1174.7361265523
 10
1828.9970770012
 20
-1187.4491941876
 10
1836.8064847715
 20
-1200.2936374384
 10
1844.4242465737
 20
-1213.2606533649
 10
1851.8451415744
 20
-1226.3413550221
 10
1859.0640838628
 20
-1239.5267775505
 10
1866.0761259364
 20
-1252.8078843201
 10
1872.8764620919
 20
-1266.1755731237
 10
1879.4604317186
 20
-1279.6206824152
 10
1885.8235224925
 20
-1293.1339975882
 10
1891.9613734691
 20
-1306.7062572916
 10
1897.8697780719
 20
-1320.3281597764
 10
1903.5446869756
 20
-1333.9903692712
 10
1908.982210881
 20
-1347.68352238
 10
1914.1786231808
 20
-1361.3982344996
 10
1919.1303625137
 20
-1375.1251062514
 10
1923.8340352049
 20
-1388.8547299233
 10
1928.286417592
 20
-1402.5776959169
 10
1932.4844582345
 20
-1416.2845991968
 10
1936.4252800051
 20
-1429.9660457362
 10
1940.1061820614
 20
-1443.6126589551
 10
1943.524641697
 20
-1457.2150861463
 10
1946.6783160705
 20
-1470.7640048859
 10
1949.5650438108
 20
-1484.2501294216
 10
1952.1828464991
 20
-1497.6642170373
 10
1954.5299300241
 20
-1510.9970743874
 10
1956.6046858121
 20
-1524.2395637976
 10
1958.405691929
 20
-1537.3826095269
 10
1959.9317140552
 20
-1550.4172039885
 10
1961.1817063313
 20
-1563.3344139223
 10
1962.1548120752
 20
-1576.1253865179
 10
1962.8503643687
 20
-1588.7813554816
 10
1963.2678865151
 20
-1601.2936470445
 10
1963.4070923654
 20
-1613.6536859068
 10
1963.2678865151
 20
-1625.8530011154
 10
1962.8503643687
 20
-1637.8832318691
 10
1962.1548120752
 20
-1649.7361332485
 10
1961.1817063313
 20
-1661.4035818671
 10
1959.9317140552
 20
-1672.8775814384
 10
1958.405691929
 20
-1684.1502682563
 10
1956.6046858121
 20
-1695.2139165844
 10
1954.5299300241
 20
-1706.0609439506
 10
1952.1828464991
 20
-1716.6839163443
 10
1949.5650438108
 20
-1727.0755533108
 10
1946.6783160705
 20
-1737.2287329412
 10
1943.524641697
 20
-1747.1364967533
 10
1940.1061820614
 20
-1756.7920544608
 10
1936.4252800051
 20
-1766.1887886266
 10
1932.4844582345
 20
-1775.3202591986
 10
1928.286417592
 20
-1784.180207923
 10
1923.8340352049
 20
-1792.7625626335
 10
1919.1303625137
 20
-1801.0614414128
 10
1914.1786231808
 20
-1809.071156624
 10
1908.982210881
 20
-1816.7862188083
 10
1903.5446869756
 20
-1824.2013404476
 10
1897.8697780719
 20
-1831.3114395878
 10
1891.9613734691
 20
-1838.1116433221
 10
1885.8235224925
 20
-1844.5972911307
 10
1879.4604317186
 20
-1850.7639380744
 10
1872.8764620919
 20
-1856.6073578414
 10
1866.0761259364
 20
-1862.1235456438
 10
1859.0640838628
 20
-1867.3087209619
 10
1851.8451415744
 20
-1872.1593301356
 10
1844.4242465737
 20
-1876.6720487997
 10
1844.4008883148
 20
-1876.6855354259
  0
LWPOLYLINE
  5
126
330
1F
100
AcDbEntity
  8
0
  6
Continuous
 62
     1
370
    25
100
AcDbPolyline
 90
      122
 70
   128
 43
0.0
 10
1301.7673957774
 20
-863.226201832
 10
1309.3618135294
 20
-859.0679448933
 10
1317.1712212997
 20
-855.2400519314
 10
1325.1669228601
 20
-851.7586248168
 10
1333.3434383562
 20
-848.6260495457
 10
1341.6951640127
 20
-845.8444730287
 10
1350.216375974
 20
-843.4158016194
 10
1358.901234227
 20
-841.341699808
 10
1367.7437866038
 20
-839.62358908
 10
1376.7379728605
 20
-838.2626469429
 10
1385.8776288313
 20
-837.2598061185
 10
1395.1564906525
 20
-836.6157539036
 10
1404.5681990556
 20
-836.3309316995
 10
1414.1063037258
 20
-836.4055347092
 10
1423.7642677227
 20
-836.8395118034
 10
1433.5354719602
 20
-837.632565556
 10
1443.4132197428
 20
-838.7841524474
 10
1453.3907413558
 20
-840.2934832377
 10
1463.4611987042
 20
-842.1595235067
 10
1473.6176899996
 20
-844.3809943639
 10
1483.8532544901
 20
-846.9563733239
 10
1494.1608772311
 20
-849.8838953507
 10
1504.5334938929
 20
-853.161554067
 10
1514.9639956021
 20
-856.7871031291
 10
1525.445233814
 20
-860.7580577669
 10
1535.9700252112
 20
-865.0716964863
 10
1546.5311566277
 20
-869.7250629349
 10
1557.1213899914
 20
-874.7149679278
 10
1567.7334672853
 20
-880.0379916334
 10
1578.3601155219
 20
-885.6904859169
 10
1588.9940517271
 20
-891.6685768414
 10
1599.6279879324
 20
-897.9681673217
 10
1610.2546361689
 20
-904.5849399334
 10
1620.8667134629
 20
-911.5143598709
 10
1631.4569468266
 20
-918.7516780559
 10
1642.018078243
 20
-926.2919343922
 10
1652.5428696403
 20
-934.1299611645
 10
1663.0241078522
 20
-942.260386581
 10
1673.4546095614
 20
-950.6776384542
 10
1683.8272262232
 20
-959.37594802
 10
1694.1348489642
 20
-968.3493538916
 10
1704.3704134547
 20
-977.5917061448
 10
1714.5269047501
 20
-987.0966705331
 10
1724.5973620985
 20
-996.8577328286
 10
1734.5748837115
 20
-1006.8682032869
 10
1744.4526314941
 20
-1017.1212212315
 10
1754.2238357316
 20
-1027.609759756
 10
1763.8817997285
 20
-1038.3266305401
 10
1773.4199043987
 20
-1049.2644887759
 10
1782.8316128018
 20
-1060.4158382017
 10
1792.110474623
 20
-1071.7730362395
 10
1801.2501305938
 20
-1083.3282992333
 10
1810.2443168505
 20
-1095.0737077828
 10
1819.0868692273
 20
-1107.0012121719
 10
1827.7717274803
 20
-1119.1026378847
 10
1836.2929394416
 20
-1131.3696912086
 10
1844.644665098
 20
-1143.793964918
 10
1852.8211805942
 20
-1156.3669440363
 10
1860.8168821546
 20
-1169.0800116716
 10
1868.6262899249
 20
-1181.9244549224
 10
1876.2440517271
 20
-1194.8914708489
 10
1883.6649467278
 20
-1207.9721725061
 10
1890.8838890162
 20
-1221.1575950345
 10
1897.8959310898
 20
-1234.4387018041
 10
1904.6962672453
 20
-1247.8063906077
 10
1911.280236872
 20
-1261.2514998992
 10
1917.6433276459
 20
-1274.7648150722
 10
1923.7811786225
 20
-1288.3370747756
 10
1929.6895832253
 20
-1301.9589772604
 10
1935.364492129
 20
-1315.6211867552
 10
1940.8020160344
 20
-1329.314339864
 10
1945.9984283342
 20
-1343.0290519836
 10
1950.9501676671
 20
-1356.7559237354
 10
1955.6538403583
 20
-1370.4855474073
 10
1960.1062227454
 20
-1384.2085134009
 10
1964.3042633879
 20
-1397.9154166808
 10
1968.2450851585
 20
-1411.5968632202
 10
1971.9259872148
 20
-1425.2434764391
 10
1975.3444468504
 20
-1438.8459036303
 10
1978.4981212239
 20
-1452.3948223699
 10
1981.3848489642
 20
-1465.8809469055
 10
1984.0026516525
 20
-1479.2950345213
 10
1986.3497351775
 20
-1492.6278918714
 10
1988.4244909655
 20
-1505.8703812816
 10
1990.2254970824
 20
-1519.0134270109
 10
1991.7515192086
 20
-1532.0480214725
 10
1993.0015114847
 20
-1544.9652314063
 10
1993.9746172286
 20
-1557.7562040019
 10
1994.6701695221
 20
-1570.4121729656
 10
1995.0876916685
 20
-1582.9244645285
 10
1995.2268975188
 20
-1595.2845033908
 10
1995.0876916685
 20
-1607.4838185994
 10
1994.6701695221
 20
-1619.5140493531
 10
1993.9746172286
 20
-1631.3669507324
 10
1993.0015114847
 20
-1643.0343993511
 10
1991.7515192086
 20
-1654.5083989224
 10
1990.2254970824
 20
-1665.7810857403
 10
1988.4244909655
 20
-1676.8447340684
 10
1986.3497351775
 20
-1687.6917614346
 10
1984.0026516525
 20
-1698.3147338283
 10
1981.3848489642
 20
-1708.7063707948
 10
1978.4981212239
 20
-1718.8595504251
 10
1975.3444468504
 20
-1728.7673142373
 10
1971.9259872148
 20
-1738.4228719448
 10
1968.2450851585
 20
-1747.8196061106
 10
1964.3042633879
 20
-1756.9510766826
 10
1960.1062227454
 20
-1765.811025407
 10
1955.6538403583
 20
-1774.3933801175
 10
1950.9501676671
 20
-1782.6922588968
 10
1945.9984283342
 20
-1790.701974108
 10
1940.8020160344
 20
-1798.4170362923
 10
1935.364492129
 20
-1805.8321579316
 10
1929.6895832253
 20
-1812.9422570718
 10
1923.7811786225
 20
-1819.7424608061
 10
1917.6433276459
 20
-1826.2281086147
 10
1911.280236872
 20
-1832.3947555584
 10
1904.6962672453
 20
-1838.2381753254
 10
1897.8959310898
 20
-1843.7543631278
 10
1890.8838890162
 20
-1848.9395384459
 10
1883.6649467278
 20
-1853.7901476196
 10
1876.2440517271
 20
-1858.3028662837
 10
1876.2207076769
 20
-1858.3163447074
  0
ENDSEC
  0
SECTION
  2
OBJECTS
  0
DICTIONARY
  5
C
330
0
100
AcDbDictionary
281
     1
  3
ACAD_GROUP
350
D
  3
ACAD_LAYOUT
350
1A
  3
ACAD_MLINESTYLE
350
17
  3
ACAD_PLOTSETTINGS
350
19
  3
ACAD_PLOTSTYLENAME
350
E
  3
ACAD_SCALELIST
350
47
  3
DWGPROPS
350
127
  0
DICTIONARY
  5
D
102
{ACAD_REACTORS
330
C
102
}
330
C
100
AcDbDictionary
281
     1
  0
DICTIONARY
  5
1A
102
{ACAD_REACTORS
330
C
102
}
330
C
100
AcDbDictionary
281
     1
  3
Layout1
350
1E
  3
Layout2
350
26
  3
Model
350
22
  0
DICTIONARY
  5
17
102
{ACAD_REACTORS
330
C
102
}
330
C
100
AcDbDictionary
281
     1
  3
Standard
350
18
  0
DICTIONARY
  5
19
102
{ACAD_REACTORS
330
C
102
}
330
C
100
AcDbDictionary
281
     1
  0
ACDBDICTIONARYWDFLT
  5
E
102
{ACAD_REACTORS
330
C
102
}
330
C
100
AcDbDictionary
281
     1
  3
Normal
350
F
100
AcDbDictionaryWithDefault
340
F
  0
DICTIONARY
  5
47
102
{ACAD_REACTORS
330
C
102
}
330
C
100
AcDbDictionary
281
     1
  3
A0
350
48
  3
A1
350
49
  3
A2
350
4A
  3
A3
350
4B
  3
A4
350
4C
  3
A5
350
4D
  3
A6
350
4E
  3
A7
350
4F
  3
A8
350
50
  3
A9
350
51
  3
B0
350
52
  3
B1
350
53
  3
B2
350
54
  3
B3
350
55
  3
B4
350
56
  3
B5
350
57
  3
B6
350
58
  3
B7
350
59
  3
B8
350
5A
  3
B9
350
5B
  3
C0
350
5C
  3
C1
350
5D
  3
C2
350
5E
  3
C3
350
5F
  3
C4
350
60
  3
C5
350
61
  3
C6
350
62
  3
C7
350
63
  3
C8
350
64
  3
C9
350
65
  3
D0
350
66
  3
D1
350
67
  3
D2
350
68
  0
XRECORD
  5
127
102
{ACAD_REACTORS
330
C
102
}
330
C
100
AcDbXrecord
280
     1
  1
DWGPROPS COOKIE
  2

  3

  4

  6

  7

  8
b.kav
  9

300
=
301
=
302
=
303
=
304
=
305
=
306
=
307
=
308
=
309
=
 40
0.0
 41
2459741.476767431
 42
2459741.476767616
  1

 90
        0
  0
LAYOUT
  5
1E
102
{ACAD_REACTORS
330
1A
102
}
330
1A
100
AcDbPlotSettings
  1

  2
none_device
  4

  6

 40
0.0
 41
0.0
 42
0.0
 43
0.0
 44
0.0
 45
0.0
 46
0.0
 47
0.0
 48
0.0
 49
0.0
140
0.0
141
0.0
142
1.0
143
1.0
 70
   688
 72
     1
 73
     0
 74
     5
  7

 75
    16
147
1.0
148
0.0
149
0.0
100
AcDbLayout
  1
Layout1
 70
     1
 71
     1
 10
0.0
 20
0.0
 11
420.0
 21
297.0
 12
0.0
 22
0.0
 32
0.0
 14
1.0000000000E+20
 24
1.0000000000E+20
 34
1.0000000000E+20
 15
-1.0000000000E+20
 25
-1.0000000000E+20
 35
-1.0000000000E+20
146
0.0
 13
0.0
 23
0.0
 33
0.0
 16
1.0
 26
0.0
 36
0.0
 17
0.0
 27
1.0
 37
0.0
 76
     0
330
1B
  0
LAYOUT
  5
26
102
{ACAD_REACTORS
330
1A
102
}
330
1A
100
AcDbPlotSettings
  1

  2
none_device
  4

  6

 40
0.0
 41
0.0
 42
0.0
 43
0.0
 44
0.0
 45
0.0
 46
0.0
 47
0.0
 48
0.0
 49
0.0
140
0.0
141
0.0
142
1.0
143
1.0
 70
   688
 72
     1
 73
     0
 74
     5
  7

 75
    16
147
1.0
148
0.0
149
0.0
100
AcDbLayout
  1
Layout2
 70
     1
 71
     2
 10
0.0
 20
0.0
 11
0.0
 21
0.0
 12
0.0
 22
0.0
 32
0.0
 14
0.0
 24
0.0
 34
0.0
 15
0.0
 25
0.0
 35
0.0
146
0.0
 13
0.0
 23
0.0
 33
0.0
 16
1.0
 26
0.0
 36
0.0
 17
0.0
 27
1.0
 37
0.0
 76
     0
330
23
  0
LAYOUT
  5
22
102
{ACAD_REACTORS
330
1A
102
}
330
1A
100
AcDbPlotSettings
  1

  2
none_device
  4
Letter_(8.50_x_11.00_Inches)
  6

 40
6.35
 41
6.35
 42
6.35000508
 43
6.35000508
 44
215.9
 45
279.4
 46
0.0
 47
0.0
 48
0.0
 49
0.0
140
0.0
141
0.0
142
1.0
143
1.0
 70
  1712
 72
     1
 73
     0
 74
     0
  7

 75
     0
147
1.0
148
0.0
149
0.0
100
AcDbLayout
  1
Model
 70
     1
 71
     0
 10
0.0
 20
0.0
 11
279.4
 21
215.9
 12
0.0
 22
0.0
 32
0.0
 14
0.0
 24
0.0
 34
0.0
 15
279.4
 25
215.9
 35
0.0
146
0.0
 13
0.0
 23
0.0
 33
0.0
 16
1.0
 26
0.0
 36
0.0
 17
0.0
 27
1.0
 37
0.0
 76
     0
330
1F
331
29
  0
MLINESTYLE
  5
18
102
{ACAD_REACTORS
330
17
102
}
330
17
100
AcDbMlineStyle
  2
Standard
 70
     0
  3

 62
   256
 51
90.0
 52
90.0
 71
     2
 49
0.5
 62
   256
  6
BYLAYER
 49
-0.5
 62
   256
  6
BYLAYER
  0
ACDBPLACEHOLDER
  5
F
102
{ACAD_REACTORS
330
E
102
}
330
E
  0
SCALE
  5
48
102
{ACAD_REACTORS
330
47
102
}
330
47
100
AcDbScale
 70
     0
300
1:1
140
1.0
141
1.0
290
     1
  0
SCALE
  5
49
102
{ACAD_REACTORS
330
47
102
}
330
47
100
AcDbScale
 70
     0
300
1:2
140
1.0
141
2.0
290
     0
  0
SCALE
  5
4A
102
{ACAD_REACTORS
330
47
102
}
330
47
100
AcDbScale
 70
     0
300
1:4
140
1.0
141
4.0
290
     0
  0
SCALE
  5
4B
102
{ACAD_REACTORS
330
47
102
}
330
47
100
AcDbScale
 70
     0
300
1:5
140
1.0
141
5.0
290
     0
  0
SCALE
  5
4C
102
{ACAD_REACTORS
330
47
102
}
330
47
100
AcDbScale
 70
     0
300
1:8
140
1.0
141
8.0
290
     0
  0
SCALE
  5
4D
102
{ACAD_REACTORS
330
47
102
}
330
47
100
AcDbScale
 70
     0
300
1:10
140
1.0
141
10.0
290
     0
  0
SCALE
  5
4E
102
{ACAD_REACTORS
330
47
102
}
330
47
100
AcDbScale
 70
     0
300
1:16
140
1.0
141
16.0
290
     0
  0
SCALE
  5
4F
102
{ACAD_REACTORS
330
47
102
}
330
47
100
AcDbScale
 70
     0
300
1:20
140
1.0
141
20.0
290
     0
  0
SCALE
  5
50
102
{ACAD_REACTORS
330
47
102
}
330
47
100
AcDbScale
 70
     0
300
1:30
140
1.0
141
30.0
290
     0
  0
SCALE
  5
51
102
{ACAD_REACTORS
330
47
102
}
330
47
100
AcDbScale
 70
     0
300
1:40
140
1.0
141
40.0
290
     0
  0
SCALE
  5
52
102
{ACAD_REACTORS
330
47
102
}
330
47
100
AcDbScale
 70
     0
300
1:50
140
1.0
141
50.0
290
     0
  0
SCALE
  5
53
102
{ACAD_REACTORS
330
47
102
}
330
47
100
AcDbScale
 70
     0
300
1:100
140
1.0
141
100.0
290
     0
  0
SCALE
  5
54
102
{ACAD_REACTORS
330
47
102
}
330
47
100
AcDbScale
 70
     0
300
2:1
140
2.0
141
1.0
290
     0
  0
SCALE
  5
55
102
{ACAD_REACTORS
330
47
102
}
330
47
100
AcDbScale
 70
     0
300
4:1
140
4.0
141
1.0
290
     0
  0
SCALE
  5
56
102
{ACAD_REACTORS
330
47
102
}
330
47
100
AcDbScale
 70
     0
300
8:1
140
8.0
141
1.0
290
     0
  0
SCALE
  5
57
102
{ACAD_REACTORS
330
47
102
}
330
47
100
AcDbScale
 70
     0
300
10:1
140
10.0
141
1.0
290
     0
  0
SCALE
  5
58
102
{ACAD_REACTORS
330
47
102
}
330
47
100
AcDbScale
 70
     0
300
100:1
140
100.0
141
1.0
290
     0
  0
SCALE
  5
59
102
{ACAD_REACTORS
330
47
102
}
330
47
100
AcDbScale
 70
     0
300
1/128" = 1'-0"
140
0.0078125
141
12.0
290
     0
  0
SCALE
  5
5A
102
{ACAD_REACTORS
330
47
102
}
330
47
100
AcDbScale
 70
     0
300
1/64" = 1'-0"
140
0.015625
141
12.0
290
     0
  0
SCALE
  5
5B
102
{ACAD_REACTORS
330
47
102
}
330
47
100
AcDbScale
 70
     0
300
1/32" = 1'-0"
140
0.03125
141
12.0
290
     0
  0
SCALE
  5
5C
102
{ACAD_REACTORS
330
47
102
}
330
47
100
AcDbScale
 70
     0
300
1/16" = 1'-0"
140
0.0625
141
12.0
290
     0
  0
SCALE
  5
5D
102
{ACAD_REACTORS
330
47
102
}
330
47
100
AcDbScale
 70
     0
300
3/32" = 1'-0"
140
0.09375
141
12.0
290
     0
  0
SCALE
  5
5E
102
{ACAD_REACTORS
330
47
102
}
330
47
100
AcDbScale
 70
     0
300
1/8" = 1'-0"
140
0.125
141
12.0
290
     0
  0
SCALE
  5
5F
102
{ACAD_REACTORS
330
47
102
}
330
47
100
AcDbScale
 70
     0
300
3/16" = 1'-0"
140
0.1875
141
12.0
290
     0
  0
SCALE
  5
60
102
{ACAD_REACTORS
330
47
102
}
330
47
100
AcDbScale
 70
     0
300
1/4" = 1'-0"
140
0.25
141
12.0
290
     0
  0
SCALE
  5
61
102
{ACAD_REACTORS
330
47
102
}
330
47
100
AcDbScale
 70
     0
300
3/8" = 1'-0"
140
0.375
141
12.0
290
     0
  0
SCALE
  5
62
102
{ACAD_REACTORS
330
47
102
}
330
47
100
AcDbScale
 70
     0
300
1/2" = 1'-0"
140
0.5
141
12.0
290
     0
  0
SCALE
  5
63
102
{ACAD_REACTORS
330
47
102
}
330
47
100
AcDbScale
 70
     0
300
3/4" = 1'-0"
140
0.75
141
12.0
290
     0
  0
SCALE
  5
64
102
{ACAD_REACTORS
330
47
102
}
330
47
100
AcDbScale
 70
     0
300
1" = 1'-0"
140
1.0
141
12.0
290
     0
  0
SCALE
  5
65
102
{ACAD_REACTORS
330
47
102
}
330
47
100
AcDbScale
 70
     0
300
1-1/2" = 1'-0"
140
1.5
141
12.0
290
     0
  0
SCALE
  5
66
102
{ACAD_REACTORS
330
47
102
}
330
47
100
AcDbScale
 70
     0
300
3" = 1'-0"
140
3.0
141
12.0
290
     0
  0
SCALE
  5
67
102
{ACAD_REACTORS
330
47
102
}
330
47
100
AcDbScale
 70
     0
300
6" = 1'-0"
140
6.0
141
12.0
290
     0
  0
SCALE
  5
68
102
{ACAD_REACTORS
330
47
102
}
330
47
100
AcDbScale
 70
     0
300
1'-0" = 1'-0"
140
12.0
141
12.0
290
     0
  0
ENDSEC
  0
EOF
